» » »

Como Un Perro Chords (ver.1)

Artists:  A B C D E F G H I J K L M N O P Q R S T U V W X Y Z # 

Como Un Perro Chords (ver.1)

Libido
Rating:
5/5 (2 votes)

Hard to play? Try these video lessons and learn fast.
                Y aca esta la mejor canción de libido  COMO UN PERRO
otras ves , esta es mi interpretación , asi no es como
ellos la tocan porque yo los he visto varias veces 
en vivo , pero suena casi igual , ojalá que entiendan
como la estoy escribiendo , creo que es bastante 
"entendible" aca la tienen :

Acordes usados en esta canción (no se si asi seran sus 
                               nombres , pero aquí están):
    G   Bbm   C   Em
e|--3----3----3----0--
B|--0----2----1----0--    en algunas partes de la canción
G|--0----3----0----0--    la nota A#m la toca en el 5to
D|--0----3----2----2--    traste (la guitarra electroacústica)
A|--2----0----3----2--
E|--3----X----0----0--

h significa hammer , en el punteo
-------------------------------------------------------------
INTRO :
 
G Bbm C Em 

* minuto 0:13  (entra el bajo)
guitarra -> G A#m / (slide de A#m hasta el 5to traste) C Em
                        y rasguea unas cuantas veces

desde este momento empiezan a tocar las dos guitarras, 1era
y 2da , la segunda , electroacústica, hace el rasgueo y la
1era , la eléctrica con un poco de chorus, toca solo
una vez de cada nota

* minuto 0:27
    G			     Bbm
Discutes sin razón quieres llevar el control
	C            		   Em
en tus manos no no no no voy a bailar.
    G			   Bbm
Me haces sentir mal luego yo pido perdón
	C				 Em
siendo tu la unica culpable de la situación

* minuto 0:51
 
    du ru ruu ah ah ah ah ah ah ahah                   aaaaaaaahhhhhh
      |--------3-----3---------3-----3--------3-----3---------0------
Riff a|----2-----2---------2-----2---------1----1---------0-----0---0
 |--->|--0---0-----0-----3---3-----3-----0---0----0-----0---0-----0--
      |----------------3---------------------------------------------
      |--------------------------------3-----------------------------
      |3----------------------------------------------3--------------
*** Este es un arpegio de las notas que se tocan en el verso ,
mientras que la guitarra eléctrica hace el arpegio , la acústica
rasguea las mismas notas

* minuto 1:04

No soy tu esclavo solo se que yo te amo
no me trates como a un perro me quitare solo el sombrero.
Y mis manos que haran si tu piel me hace falta
ya no tengo ni un amigo Dios es mi unico testigo

Coro: Se toca el (riff a) mientras canta :

	     G		    Bbm
Que puedo hacer para que me ames
	   C     	  Em
como yo te amo como yo te amo.
	     G			Bbm
Que puedo hacer para que me extrañes
	   C      	      Em
como yo te extraño como yo te extraño.

* minuto 1:56 
aca empieza el solo , tocando la nota G y luego ,
|-3h5-3~~~--------------------------------
|-----------------------------------------
|----------3-5-3-----3-----3^^------------
|----------------6-3---5-3-----5-3-5-3~~----
|-----------------------------------------
|-----------------------------------------

* minuto 2:08
|----------------------------------
|----------------------------------
|-----------9-7-9----9-7-99--7~~---
|-------22--9-7-9-22-9-7-99--7~~---
|-12/4--22--7-5-7-22-7-5-77--5~~---
|-10/2--00--------00---------------

* minuto 2:21 
(grita) YEEEEEEEEEEeeeeeeeehhhhhhh.....!
hace lo mismo que en el minuto 2:08
la parte que sigue del punteo no se como la hara , 
pero seguro que usa algun efecto raro para que
le salga asi

(Coro)

No quiero escribir mas canciones que te aturden
mis poemas no los lees dime Dios que me invento.
Como te enamoraré si ya todo lo he intentado
dime que es lo que ha pasado dime en que te he defraudado.
            
Hard to play? Try these video lessons and learn fast. | Correct




comments powered by Disqus
↑ Back to top | Tablatures and chords are parodies/interpretations of the original songs. You may use it for private study, scholarship, research or language learning purposes only