» » »

Se Tabs (ver.1)

Artists:  A B C D E F G H I J K L M N O P Q R S T U V W X Y Z # 

Se Tabs (ver.1)

Le Vibrazioni
Rating:
0/5 (0 votes)

Hard to play? Try these video lessons and learn fast.
                Le vibrazioni, Se

a tutti.

INTRO

   LAm

e---------0-----------0--------0------------0-----|
B-----------1------------1--------1-------1-------|
G-------2------------2--------2---------2---------|     X2
D-------------------------------------------------|
A---0------------2----------3-------2-------------|
E-------------------------------------------------|

    REm


e---------1-----------1--------1------------1-----|
B-----------3-----------3--------3--------3-------|
G-------2------------2--------2---------2---------|
D-----0----------2--------3----------2------------|
A-------------------------------------------------|
E-------------------------------------------------|

e-----------------0------slide-------0--------|
B-----------3-------3------//-----6-----6-----|   non sono sicuro di questa parte
G--------------2------2----//-------5------5--|   ma facendo un po' di rumore va bene!
D-------2------------------//----5------------|
A----2--------------------2//5----------------|
E---------------------------------------------|

ripeti intro durante:


Se...
se chiudo gli occhi e penso a te
è come volare sugli alberi
sapendo che più in alto andrò
più bello sarà raggiungerti
raggiungerti nei sogni miei
e anche in tutti quelli tuoi
dove potrò rincorrerti
in ampi spazi senza pericoli


LA(556775)
Perdonami mio amore
DO#m(456644)
ma la storia è semplice
FA#m                    FAm
basterebbe improvvisare un ritorno all'origine

LA(556775)
le gioie del mio cuore
DO#m(456644)
si infrangono così
FA#m                FAm
come onde di dolore spesso poi mi risucchiano


ripeti intro

Ma se...
se canto oggi c'è un perchè
perchè vorrei che fossi qui
che fossi qui accanto a me
in questa notte così piccola
la notte stretta su di me
che non mi basta mai perchè
vorrei nutrirmi sempre più
dei tuoi sussurri come musica

Perdonami mio amore
ma la storia è semplice
basterebbe improvvisare un ritorno all'origine
le gioie del mio cuore
si infrangono così
come onde di dolore spesso poi mi risucchiano
spesso poi mi risucchiano

Perdonami mio amore
ma la storia è semplice
basterebbe improvvisare un ritorno all'origine
le gioie del mio cuore
si infrangono così
come onde di dolore spesso poi mi risucchiano
come onde di dolore spesso poi mi risucchiano
spesso poi mi risucchiano

Se...
se tutto il giorno penso a te
e non è il tempo a dire che
fa sempre male stare qui
a scrivere spiegandomi
spiegandomi perchè c'è in me
una condanna a forma di me spirale vortice
che fa della mia vita sempre e solo un se

Se..
            
Hard to play? Try these video lessons and learn fast. | Correct




comments powered by Disqus
↑ Back to top | Tablatures and chords are parodies/interpretations of the original songs. You may use it for private study, scholarship, research or language learning purposes only