>
 >
Ogni Giorno Ad Ogni Ora

Ogni Giorno Ad Ogni Ora Bass Tabs

Le Vibrazioni - Ogni Giorno Ad Ogni Ora chords, tabs, tablatures, lyrics

Guitar lessons | Add/correct | Request | Top 50 tabs Artists:  A B C D E F G H I J K L M N O P Q R S T U V W X Y Z 0-9

Ogni Giorno Ad Ogni Ora Bass Tabs – Le Vibrazioni

CD, Sheet music, Poster

Do you like Ogni Giorno Ad Ogni Ora? Share with your friends now
Bass Tabs

No bass intro
Bass play (00:39)
Verse x4
G|----------------------------------|
D|------------------6---------------|
A|--------0--07-4--4-4--4-4---------|
E|---2---2------------------0-------|

Pre chorus
G|---------------------------------|
D|---------------------------------|
A|-555555555555579577777777777777--|
E|---------------------------------|

chorus x2
G|---------------------------------|
D|---------------------------------|
A|--0--0-0-------------------------|
E|--------4--4-4--2--2-22--2-22----|

G|---------------------------------|
D|---------------------------------|
A|--0--0-04--4-4------------55--77-|
E|----------------2--2-22----------|

No bass in second verse

Pre chorus
G|---------------------------------|
D|---------------------------------|
A|-555555555555579577777777777777--|
E|---------------------------------|

Chorus x2
G|---------------------------------|
D|---------------------------------|
A|--0--0-0-------------------------|
E|--------4--4-4--2--2-22--2-22----|

G|---------------------------------|
D|---------------------------------|
A|--0--0-04--4-4------------55--77-|
E|----------------2--2-22----------|

Outro
G|--------------------------------------------|
D|--------------------------------------------|
A|--------------------------------------------|
E|--2~--------2~--------2~--------2~--------2~|





Comments


Popular Le Vibrazioni tabs & chords
Raggio Di Sole Bass Tabs
Sono Più Sereno Bass Tabs
Vieni Da Me Bass Tabs
Insolita Chords
Insolita 1 Chords
L'altro Giorno Che Verrà Chords
Malie Chords
Dedicato A Te Tabs
Angelica Ukulele
Respiro Ukulele


Song lyrics



↑ Back to top | Tablatures and chords are parodies/interpretations of the original songs. You may use it for private study, scholarship, research or language learning purposes only
© 2014 AZChords.com Contact us | Privacy policy | DMCA | Add/correct tabs | Request tabs | Top 50 tabs