» » »

The Sun Goes Down Bass tabs (ver.1)

Artists:  A B C D E F G H I J K L M N O P Q R S T U V W X Y Z # 

The Sun Goes Down Bass tabs (ver.1)

Level 42
Rating:
3/5 (1 vote)

Hard to play? Try these video lessons and learn fast.
                (The Sun Goes Down) Living It Up
Level 42
Standing In The Light 1983


I have used the album version
for this transcription.
  
  Intro
G|-----------------|---------------------|
D|-----------------|-----2------4----2-2-|
A|-----------------|-2-4----2-4----4-----|
E|-----------------|---------------------|
  etc

Verse
G|-------------------|------------|
D|-------------------|------------|
A|---------0-2-4-4---|------------|
E|-2-2-2-4---------0-|-2-0-2-0--0-|

G|-----------------|----------------|
D|---------------2-|-4-4-4-2--2-3-4-|
A|---------0-2-4---|----------------|
E|-2-2-2-4---------|----------------|

This verse lick may also come in useful:
G|-4h5p4\2-4h5p4\2-|
D|-----------------|
A|-----------------|
E|-----------------|
            
Hard to play? Try these video lessons and learn fast. | Correct




comments powered by Disqus
↑ Back to top | Tablatures and chords are parodies/interpretations of the original songs. You may use it for private study, scholarship, research or language learning purposes only