» » »

The Chinese Way Bass tabs (ver.1)

Artists:  A B C D E F G H I J K L M N O P Q R S T U V W X Y Z # 

The Chinese Way Bass tabs (ver.1)

Level 42
Rating:
0/5 (0 votes)

Hard to play? Try these video lessons and learn fast.
                The Whole song is just pretty much...

|------------------------------5--4--|
|---77---------------55-44-----------|
|-0----99-7------0-00------7--3--2---|
|-----------0--3---------------------|


|------------------------------5--4--|
|---77---------------55-44-----------|
|-0----99-7------0-00------7--3--2---|
|-----------0--3---------------------|
            
Hard to play? Try these video lessons and learn fast. | Correct




comments powered by Disqus
↑ Back to top | Tablatures and chords are parodies/interpretations of the original songs. You may use it for private study, scholarship, research or language learning purposes only