» » »

Livin It Up Bass tabs (ver.1)

Artists:  A B C D E F G H I J K L M N O P Q R S T U V W X Y Z # 

Livin It Up Bass tabs (ver.1)

Level 42
Rating:
0/5 (0 votes)

Hard to play? Try these video lessons and learn fast.
                |----------------------------------------------------------|
|---------------------------------------2--4-2-4-2--2344---|
|--------0-24----------------------0-24--------------------|
|-22-2-2------2---24-0-0-0--22-2-2-------------------------|

|----------------------------------------------------------|
|---------------------------------------2--4-2-4-2--2344---|
|--------0-24----------------------0-24--------------------|
|-22-2-2------2---24-0-0-0--22-2-2-------------------------|
            
Hard to play? Try these video lessons and learn fast. | Correct




comments powered by Disqus
↑ Back to top | Tablatures and chords are parodies/interpretations of the original songs. You may use it for private study, scholarship, research or language learning purposes only