» » »

Level 42, Hot Water Bass tabs (ver.2)

Artists:  A B C D E F G H I J K L M N O P Q R S T U V W X Y Z # 

Hot Water Bass tabs (ver.2)

Level 42 Tabs
Rating:
0/5 (0 votes)
Hot Water lessons Tabs too difficult? Try these video lessons and learn fast
                Correction Of:		BenniBinder  (address not given)



Verse and Chorus (Riff 1):


G:|------------------------------|------------------------------|
D:|------------------------------|--------p45-----------p23-----|
A:|--------p57--x--------p57--x--|-------------x-------------x--|
E:|--0-xx------x---0-xx------x---|--5-xx------x---3-xx------x---| 


Variation of Verse and Chorus (Riff 1):


G:|---------------p79------------|------------------------------|
D:|------------------------------|--------p45-----------p23-----|
A:|-------p57--x-------x--p57--x-|-------------x-------------x--|
E:|-0-xx------x-------x-------x--|--5-xx------x---3-xx------x---| 


Bridge:
(For the bridge just strum the notes with you finger)


G:|------------------------------|------------------------------|
D:|--4---------7--------9-----9--|----------------------7----7--|
A:|--2---------5--------7-----7--|----------------------5----5--|
E:|------------------------0-----|--5---------3-----------------|


Verse and Chorus (Riff 2):
(This is tricky so start off slow and work your way up to the tempo)


G:|--------------13-(let note ring)|
D:|-----12h14h12-------------------|
A:|--14----------------------------|
E:|--------------------------------|

G:|------------------------------------------------------|
D:|--14-12-14-15-14-12-14-14-12-15-14-12-15-14-12-14-12--|
A:|------------------------------------------------------|
E:|------------------------------------------------------| x3


Then play:


G:|--------------13-(let note ring)|
D:|-----12h14h12-------------------|
A:|--14----------------------------|
E:|--------------------------------| 

G:|-----------------------------------12--------------------|
D:|--14-12-14-15-14-12-14-14-12-14-15----15-14-12-14-15-14--|
A:|---------------------------------------------------------|
E:|---------------------------------------------------------| 


That’s it!
Now you have single-handedly conquered Hot Water by Level 42

Give yourself a pat on the back!




Key:

P= Pluck
H= Hammer on
X= Muted note
            
Submit corrections

comments powered by Disqus
↑ Back to top | Level 42 Bass for Hot Water. Lyrics for acoustic guitar and electric guitar. Tablatures and chords are parodies/interpretations of the original songs. You may use it for private study, scholarship, research or language learning purposes only