» » »

Hot Water Bass tabs (ver.1)

Artists:  A B C D E F G H I J K L M N O P Q R S T U V W X Y Z # 

Hot Water Bass tabs (ver.1)

Level 42
Rating:
4/5 (2 votes)

Hard to play? Try these video lessons and learn fast.
                Tuning: E-A-D-G
~  = vibrato
h  = hamer on
/  = slide up
x  = muted note
pl = pluck

	!!! The whole song is slapped !!! ( exept the pl's )

		*Verse 1*

|-------------------------------------|
|-----------------------pl45-----pl23-|
|-----pl57-----pl57-------------------|
|-0-x------0-x------5-x------3-x------|

|-------------------------------------|
|-----------------------pl45-----pl23-|
|-----pl57-----pl57-------------------|
|-0-0------0--------~5-------3-3------|

		*Verse 1 part 2*		

|----------pl79------------------------|
|------------------------pl45-----pl23-|
|-----pl57------pl57-------------------|
|-0-x----------------5-5------3-3------|

		*Verse 1 part 3*

|--------------|
|--14--14--14--|
|-~12-~12-~12--|
|--------------|

		*Verse 2*

|--------------|
|-4--7/--9-9-9-|
|-2--5/--7-7-7-|
|--------0-----|

|-------------|
|---7---5--h7-|
|----------h5-|
|-5---3-------|

		There is a basssolo after, but Mark play it always differend and it is really difficulty,
		maybe you can find you're own bassolo ?...

	Succes !!!
				...Red Hair Jimmy ...
            
Hard to play? Try these video lessons and learn fast. | Correct




comments powered by Disqus
↑ Back to top | Tablatures and chords are parodies/interpretations of the original songs. You may use it for private study, scholarship, research or language learning purposes only