» » »

Heaven In My Hands Tabs (ver.1)

Artists:  A B C D E F G H I J K L M N O P Q R S T U V W X Y Z # 

Heaven In My Hands Tabs (ver.1)

Level 42
Rating:
0/5 (0 votes)

Hard to play? Try these video lessons and learn fast.
                (Intro)
Heaven In My Hands
Level 42
Staring at the Sun 1988


Only reached #12.
A great keyboard hook followed by a 
Status Quo style riff.

Keyboard Hook

E|-------------------------------------|
B|-12-10h12h13-12-10----------10-------|
G|-------------------12-11h12----11----|
D|----------------------------------12-|
A|-------------------------------------|
E|-------------------------------------|

E|-------------------------------------|
B|-12-10h12h13-12-10----------10-------|
G|-------------------12-11h12----11----|
D|----------------------------------12-|
A|-------------------------------------|
E|-------------------------------------|

E|-------------------------------------|
B|-12-10h12h13-12-10----------10-------|
G|-------------------12-11h12----11----|
D|----------------------------------12-|
A|-------------------------------------|
E|-------------------------------------|

E|-------------------------------------|
B|-12-10h12h13-12-10----------10-------|
G|-------------------12-11h12----11----|
D|----------------------------------12-|
A|-------------------------------------|
E|-------------------------------------|
            
Hard to play? Try these video lessons and learn fast. | Correct




comments powered by Disqus
↑ Back to top | Tablatures and chords are parodies/interpretations of the original songs. You may use it for private study, scholarship, research or language learning purposes only