» » »

Riot Grrl Bass tabs (ver.1)

Artists:  A B C D E F G H I J K L M N O P Q R S T U V W X Y Z # 

Riot Grrl Bass tabs (ver.1)

Le Tigre
Rating:
0/5 (0 votes)

Hard to play? Try these video lessons and learn fast.
                This is my second bass tab that i have ever done but its correct 
enjoy

Intro/Verse (E,A,D,G)
G|---------------------------|
D|---------------------------|
A|-2-2-2-2-2-2---------------|
E|-------------2-2-2-2-3-3-3-|

Chorus
G|-----------------|
D|-----------------|
A|-----------2-2---|
E|-2-2-2-2-3-------|

End
G|---------|
D|---------|
A|-2-2-2---|
E|-------3-|

Heres How To Play It

Verse X 18
Chorus X 4
Verse X 8
Chorus X 4
Verse X 4
End X 1
            
Hard to play? Try these video lessons and learn fast. | Correct




comments powered by Disqus
↑ Back to top | Tablatures and chords are parodies/interpretations of the original songs. You may use it for private study, scholarship, research or language learning purposes only