» » »

Eau D'bedroom Dancing Bass tabs (ver.1)

Artists:  A B C D E F G H I J K L M N O P Q R S T U V W X Y Z # 

Eau D'bedroom Dancing Bass tabs (ver.1)

Le Tigre
Rating:
0/5 (0 votes)

Hard to play? Try these video lessons and learn fast.
                Le Tigre
Eau d'Bedroom Dancing
Self Titled

G--------------------|
D--------------------|
A--------------------|
E-2-22-000-5-5-7-5-0-|

G--------------------|
D--------------------|
A--------------------|
E-2-22-000-5-5-7-5-0-|

or you could try :

G--------------------|
D--------------------|
A----------00-2-0----|
E-2-22-000--------0--|

its essentially the same thing.
            
Hard to play? Try these video lessons and learn fast. | Correct




comments powered by Disqus
↑ Back to top | Tablatures and chords are parodies/interpretations of the original songs. You may use it for private study, scholarship, research or language learning purposes only