>
 >
La Rue Principale

La Rue Principale Bass Tabs

Les Colocs - La Rue Principale chords, tabs, tablatures, lyrics

Guitar lessons | Add/correct | Request | Top 50 tabs Artists:  A B C D E F G H I J K L M N O P Q R S T U V W X Y Z 0-9

La Rue Principale Bass Tabs – Les Colocs

CD, Sheet music, Poster

Do you like La Rue Principale? Share with your friends now
Bass TabsChordsTabsUkulele
Les Colocs - La Rue Principale
Partition: Patrick Chamberland

G||------------------|---------------------|
D||------------------|------------2--3--4--|
A||------------------|---------------------|
E||------------------|---------------------|


                                                
-----------------------|-----------------------|
--5---------5----------|------------5----------|
-------5---------------|-------5---------------|
-----------------6--5--|--3--------------6--5--|


                                                 
-----------------------|------------------------|
------------5----------|------------5--2--3--4--|
-------5---------------|-------5----------------|
--3--------------6--5--|--3---------------------|


                                                
----------------------|------------------------|
--5---------5---------|--5---------5--2--3--4--|
-------5---------5----|-------5----------------|
----------------------|------------------------|


                                               
----------------------|-----------------------|
--5---------5---------|-----------------------|
-------5---------5----|--5---------5-------5--|
----------------------|-------5---------5-----|


                                                   
------------------------|-------------------------|
------------------------|-------------------------|
--3-------3--5-------5--|--7---------7---5-7-7-5--|
-------3----------5-----|-------7-----------------|


                                                
----------------------|------------------------|
----------------------|--5---------5-----------|
--3-------3--5--------|-------5----------------|
-------3--------------|-----------------6-6-5--|


                                                  
------------------------|------------------------|
--5---------5-----------|------------5--2--3--4--|
-------5----------------|-------5----------------|
-----------------6-6-5--|--3---------------------|


                                                
----------------------|------------------------|
--5---------5---------|--5---------5--2--3--4--|
-------5---------5----|-------5----------------|
----------------------|------------------------|


                                               
----------------------|-----------------------|
--5---------5---------|-----------------------|
-------5---------5----|--5---------5-------5--|
----------------------|-------5---------5-----|


                                                   
------------------------|-------------------------|
------------------------|-------------------------|
--3-------3--5-------5--|--7---------7---5-7-7-5--|
-------3----------5-----|-------7-----------------|


                                                
----------------------|------------------------|
----------------------|--5---------5-----------|
--3-------3--5--------|-------5----------------|
-------3--------------|-----------------6-6-5--|


                                                  
------------------------|------------------------|
--5---------5-----------|------------5--2--3--4--|
-------5----------------|-------5----------------|
-----------------6-6-5--|--3---------------------|


                                                
----------------------|------------------------|
----------------------|--5---------5--3--------|
--3---------3---------|-------5----------5--5--|
-------3---------3----|------------------------|


                                                 
------------------------|-----------------------|
------------------------|------------2-2--3--4--|
--3---------3--2--3--4--|--5--------------------|
-------3----------------|-----------------------|


                                                 
-----------------------|------------------------|
--5---------5----------|--5---------5--2--3--4--|
-------5---------------|-------5----------------|
-----------------6--5--|------------------------|


                                                
----------------------|------------------------|
--5---------5---------|--5---------5--2--3--4--|
-------5---------5----|-------5----------------|
----------------------|------------------------|


                                               
----------------------|-----------------------|
--5---------5---------|-----------------------|
-------5---------5----|--5---------5-------5--|
----------------------|-------5---------5-----|


                                                   
------------------------|-------------------------|
------------------------|-------------------------|
--3-------3--5-------5--|--7---------7---5-7-7-5--|
-------3----------5-----|-------7-----------------|


                                                
----------------------|------------------------|
----------------------|--5---------5-----------|
--3-------3--5--------|-------5----------------|
-------3--------------|-----------------6-6-5--|


                                                
------------------------|----------------------|
--5---------5-----------|--5-------------------|
-------5----------------|-------5----3---------|
-----------------6-6-5--|-----------------3----|


                                               
-----------------------|----------------------|
--5---------5----------|----------------------|
-------5---------5--5--|--7--------------7----|
-----------------------|-------7----5---------|


                                                
------------------------|----------------------|
------------------------|--5-------------------|
--5---------5--3--2-----|-------5----3---------|
-------5-------------5--|-----------------3----|


                                              
----------------------|----------------------|
--5-------------------|----------------------|
-------5----7---------|-------7----5---------|
-----------------7----|--5--------------5----|


                                                
------------------------|----------------------|
--5---------5--2--3--4--|--5---------5---------|
-------5----------------|-------5---------5----|
------------------------|----------------------|


                                                
----------------------|------------------------|
--5---------5---------|--5---------5--2--3--4--|
-------5---------5----|-------5----------------|
----------------------|------------------------|


                                               
----------------------|-----------------------|
--5---------5---------|-----------------------|
-------5---------5----|--5---------5-------5--|
----------------------|-------5---------5-----|


                                                   
------------------------|-------------------------|
------------------------|-------------------------|
--3-------3--5-------5--|--7---------7---5-7-7-5--|
-------3----------5-----|-------7-----------------|


                                                
----------------------|------------------------|
----------------------|--5---------5-----------|
--3-------3--5--------|-------5----------------|
-------3--------------|-----------------6-6-5--|


                                                
------------------------|----------------------|
--5---------5-----------|----------------------|
-------5----------------|--3---------3---------|
-----------------6-6-5--|-------3---------3----|


                                                  
------------------------|------------------------|
--5---------5--3--------|------------------------|
-------5----------5--5--|--3---------3--2--3--4--|
------------------------|-------3----------------|


                                                
-----------------------|-----------------------|
------------2-2--3--4--|--5---------5----------|
--5--------------------|-------5---------------|
-----------------------|-----------------6--5--|


                                             
------------------------|-------------------|
--5---------5--2--3--4--|--5----------------|
-------5----------------|-------------------|
------------------------|-------------------|


                                             
---------------------|----------------------|
------------2--3--4--|--5---------5---------|
---------------------|-------5---------5----|
---------------------|----------------------|


                                             
-----------------------|--------------------|
-----------------------|--------------------|
--5---------5-------5--|--3--------5--------|
-------5---------5-----|--------------------|


                                               
-----------------------|----------------------|
-----------------------|----------------------|
--7-----------5-7-7-5--|--3-------3--5--------|
-----------------------|-------3--------------|


                                                 
------------------------|-----------------------|
--5---------5-----------|------------5----------|
-------5----------------|-------5---------------|
-----------------6-6-5--|--3--------------6--5--|


                                             
-----------------------|--------------------|
------------5----------|-----------------4--|
-------5---------------|--------------------|
--3--------------6--5--|--3-----------------|


                     
-------------------||
--5----------------||
-------------------||
-------------------||





Comments


Popular Les Colocs tabs & chords
Julie Chords
Le Repondeur Chords
Le Repondeur 1 Chords
Mauvais CaractèRe Chords
Tassez-vous De Dla Chords
La Rue Principale Tabs
La Rue Principale Ukulele
Le Pouding A Larsenic Ukulele
Le Repondeur Ukulele
Tassez-vous De Dla Ukulele


Song lyrics



↑ Back to top | Tablatures and chords are parodies/interpretations of the original songs. You may use it for private study, scholarship, research or language learning purposes only
© 2014 AZChords.com Contact us | Privacy policy | DMCA | Add/correct tabs | Request tabs | Top 50 tabs