>
 >
Filipino Ray

Filipino Ray Bass Tabs

Les Claypool - Filipino Ray chords, tabs, tablatures, lyrics

Guitar lessons | Add/correct | Request | Top 50 tabs Artists:  A B C D E F G H I J K L M N O P Q R S T U V W X Y Z 0-9

Filipino Ray Bass Tabs – Les Claypool

CD, Sheet music, Poster

Do you like Filipino Ray? Share with your friends now
Bass TabsBass Tabs v2
#------------------------------------------------------------------------------##

                            FILLIPINO RAY (Bassline)
                           As recorded by Les Claypool
                     (From the 2006 Album OF WHALES AND WOE)

Words and Music by Les Claypool

Gtr I (E A D G) - 'Untitled'

 Intro
  Q=155(8=s8)    Q=170(8=s8)
 4/4
  Gtr I
  |-3-| |-3-|            |-3-| |-3-|   |-3-| |-3-|
  q q q q q q    E E E E E E E E E E   E E E E E E  E  E  Q
|-------------||---------------------|-------------13-13--9-|
|-------------||-----2---------------|-3-4-5-------13-13--9-|
|-------------||---------------3-4-5-|-------3-4-5----------|
|-0-0-0-0-0-0-||-0-0---0-3-4-5-------|----------------------|


                                    |-3-| |-3-|   |-3-| |-3-|
  E E E E H      W          E E E E E E E E E E   E E E E E E  E  E Q
|--------------|----------|---------------------|-------------13-13-9--|
|--------------|----------|-----2---------------|-3-4-5-------13-13-9--|
|--------------|----------|---------------3-4-5-|-------3-4-5----------|
|-0-0-0-0------|----------|-0-0---0-3-4-5-------|----------------------|


                                    |-3-| |-3-|   |-3-| |-3-|
  E E E E H      W          E E E E E E E E E E   E E E E E E  E  E Q
|--------------|----------|---------------------|-------------13-13-9--|
|--------------|----------|-----2---------------|-3-4-5-------13-13-9--|
|--------------|----------|---------------3-4-5-|-------3-4-5----------|
|-0-0-0-0------|----------|-0-0---0-3-4-5-------|----------------------|


                           Verse
                                    |-3-| |-3-|   |-3-| |-3-|
  E E E E H      W          E E E E E E E E E E   E E E E E E  E  E Q
|--------------|----------|---------------------|-------------13-13-9--|
|--------------|----------|-----2---------------|-3-4-5-------13-13-9--|
|--------------|----------|---------------3-4-5-|-------3-4-5----------|
|-0-0-0-0------|----------|-0-0---0-3-4-5-------|----------------------|


                  |--3--|  |--3--|
  E E E E H       q  q  q  q  q  q
|--------------|-13-13-13-13-13-13-|
|--------------|-14-14-14-14-14-14-|
|--------------|-------------------|
|-0-0-0-0------|-------------------|


          |-3-| |-3-|   |-3-| |-3-|
  E E E E E E E E E E   E E E E E E  E  E Q
|---------------------|-------------13-13-9--|
|-----2---------------|-3-4-5-------13-13-9--|
|---------------3-4-5-|-------3-4-5----------|
|-0-0---0-3-4-5-------|----------------------|


                           |-3-| |-3-|
  E E E E H      E E +E  E E E E E E E
|--------------|-----------------------|
|--------------|-2---------5-4-3-------|
|--------------|-----------------5-4-3-|
|-0-0-0-0------|---0-(0)-0-------------|


          |-3-| |-3-|   |-3-| |-3-|
  E E E E E E E E E E   E E E E E E  E  E Q
|---------------------|-------------13-13-9--|
|-----2---------------|-3-4-5-------13-13-9--|
|---------------3-4-5-|-------3-4-5----------|
|-0-0---0-3-4-5-------|----------------------|


                  |--3--|  |--3--|
  E E E E H       q  q  q  q  q  q
|--------------|-13-13-13-13-13-13-|
|--------------|-14-14-14-14-14-14-|
|--------------|-------------------|
|-0-0-0-0------|-------------------|


          |-3-| |-3-|   |-3-| |-3-|
  E E E E E E E E E E   E E E E E E  E  E Q
|---------------------|-------------13-13-9--|
|-----2---------------|-3-4-5-------13-13-9--|
|---------------3-4-5-|-------3-4-5----------|
|-0-0---0-3-4-5-------|----------------------|


                     |-3-| |-3-| |-3-|
  E E E E H      E E E E E E E E E E E
|--------------|-----------------------|
|--------------|---2-5-4-3-------------|
|--------------|-----------5-4-3-------|
|-0-0-0-0------|-----------------5-4-3-|


          |-3-| |-3-|   |-3-| |-3-|
  E E E E E E E E E E   E E E E E E  E  E Q
|---------------------|-------------13-13-9----|
|-----2---------------|-3-4-5-------13-13-9----|
|---------------3-4-5-|-------3-4-5------------|
|-0-0---0-3-4-5-------|------------------------|


                                    Chorus
                  |--3--|  |--3--|       |-3-|  |-3-|  |-3--|
  E E E E H       q  q  q  q  q  q   E E E E E  E E E  E E  E    E  E  H   Q
|--------------|-13-13-13-13-13-13-|-0-0-9p0-0-10p0-0-10p0-12-|-12-12--------|
|--------------|-14-14-14-14-14-14-|--------------------------|--------------|
|--------------|-------------------|--------------------------|--------------|
|-0-0-0-0------|-------------------|--------------------------|--------------|


      |-3-|  |-3-|  |-3--|
  E E E E E  E E E  E E  E    E  E  E  E  H
|-0-0-9p0-0-10p0-0-10p0-12-|-12-12-14-14-----|
|--------------------------|-----------------|
|--------------------------|-----------------|
|--------------------------|-----------------|


      |-3-|  |-3-|  |-3--|
  E E E E E  E E E  E E  E    E  E H    Q
|-0-0-9p0-0-10p0-0-10p0-12-|-12-12----------|
|--------------------------|----------------|
|--------------------------|----------------|
|--------------------------|----------------|


      |-3-|  |-3-|  |-3-|
  E E E E E  E E E  E E E    E  E Q  E E Q
|-0-0-9p0-0-10p0-0-12p0-0-|-12-12----0-x-0--|
|-------------------------|-----------------|
|-------------------------|-----------------|
|-------------------------|-----------------|


      |-3-|  |-3-|  |-3--|
  E E E E E  E E E  E E  E    E  E H  Q
|-0-0-9p0-0-10p0-0-10p0-12-|-12-12-------|
|--------------------------|-------------|
|--------------------------|-------------|
|--------------------------|-------------|


      |-3-|  |-3-|  |-3--|
  E E E E E  E E E  E E  E    E  E  E  E H
|-0-0-9p0-0-10p0-0-10p0-12-|-12-12-14-14------|
|--------------------------|------------------|
|--------------------------|------------------|
|--------------------------|------------------|


      |-3-|  |-3-|  |-3--|
  E E E E E  E E E  E E  E    E  E H    Q
|-0-0-9p0-0-10p0-0-10p0-12-|-12-12---------|
|--------------------------|---------------|
|--------------------------|---------------|
|--------------------------|---------------|


      |-3-|  |-3-|  |-3--|              |-3-|
  E E E E E  E E E  E E  E    E E Q  Q  E E E
|-0-0-9p0-0-10p0-0-10p0-12-|-12-0-------------|
|--------------------------|------4--2--------|
|--------------------------|------------5-4-3-|
|--------------------------|------------------|


 Verse
          |-3-| |-3-|   |-3-| |-3-|
  E E E E E E E E E E   E E E E E E  E  E Q
|---------------------|-------------13-13-9---|
|-----2---------------|-3-4-5-------13-13-9---|
|---------------3-4-5-|-------3-4-5-----------|
|-0-0---0-3-4-5-------|-----------------------|


                                    |-3-| |-3-|   |-3-| |-3-|
  E E E E H      W          E E E E E E E E E E   E E E E E E  E  E Q
|--------------|----------|---------------------|-------------13-13-9--|
|--------------|----------|-----2---------------|-3-4-5-------13-13-9--|
|--------------|----------|---------------3-4-5-|-------3-4-5----------|
|-0-0-0-0------|----------|-0-0---0-3-4-5-------|----------------------|


                  |--3--|  |--3--|
  E E E E H       q  q  q  q  q  q
|--------------|-13-14-15-16-17-18-|
|--------------|-14-14-14-14-14-14-|
|--------------|-------------------|
|-0-0-0-0------|-------------------|


          |-3-| |-3-|   |-3-| |-3-|
  E E E E E E E E E E   E E E E E E  E  E Q
|---------------------|-------------13-13-9--|
|-----2---------------|-3-4-5-------13-13-9--|
|---------------3-4-5-|-------3-4-5----------|
|-0-0---0-3-4-5-------|----------------------|


                                        |-3-| |-3-|   |-3-| |-3-|
  E E E E H      H    Q   Q     E E E E E E E E E E   E E E E E E  E  E Q
|--------------|--------------|---------------------|-------------13-13-9--|
|--------------|--------------|-----2---------------|-3-4-5-------13-13-9--|
|--------------|--------------|---------------3-4-5-|-------3-4-5----------|
|-0-0-0-0------|---------12\--|-0-0---0-3-4-5-------|----------------------|


                                    |-3-| |-3-|   |-3-| |-3-|
  E E E E H      W          E E E E E E E E E E   E E E E E E  E  E Q
|--------------|----------|---------------------|-------------13-13-9--|
|--------------|----------|-----2---------------|-3-4-5-------13-13-9--|
|--------------|----------|---------------3-4-5-|-------3-4-5----------|
|-0-0-0-0------|----------|-0-0---0-3-4-5-------|----------------------|


                                         |-3-| |-3-|   |-3-| |-3-|
  E E E E H       H     Q   Q    E E E E E E E E E E   E E E E E E  E  E Q
|--------------|-12----13--14--|---------------------|-------------13-13-9--|
|--------------|-13----14--15--|-----2---------------|-3-4-5-------13-13-9--|
|--------------|---------------|---------------3-4-5-|-------3-4-5----------|
|-0-0-0-0------|---------------|-0-0---0-3-4-5-------|----------------------|


                                        |-3-| |-3-|   |-3-| |-3-|
  E E E E H      H    Q    Q    E E E E E E E E E E   E E E E E E  E  E Q
|--------------|---------/14--|---------------------|-------------13-13-9--|
|--------------|--------------|-----2---------------|-3-4-5-------13-13-9--|
|--------------|--------------|---------------3-4-5-|-------3-4-5----------|
|-0-0-0-0------|--------------|-0-0---0-3-4-5-------|----------------------|


                         |-3-|
  E E E E H       Q   Q  E E E Q
|--------------|-13--12-----------|
|--------------|-14--13--5-4-3----|
|--------------|---------------5--|
|-0-0-0-0------|------------------|


          |-3-| |-3-|   |-3-| |-3-|
  E E E E E E E E E E   E E E E E E  E  E Q
|---------------------|-------------13-13-9---|
|-----2---------------|-3-4-5-------13-13-9---|
|---------------3-4-5-|-------3-4-5-----------|
|-0-0---0-3-4-5-------|-----------------------|


                         |-3--|
  E E E E H        H     E E  E  E  E
|--------------|--------10p0-12-12-12-|
|--------------|----------------------|
|--------------|-/12------------------|
|-0-0-0-0------|----------------------|


 Chorus
      |-3-|  |-3-|  |-3--|
  E E E E E  E E E  E E  E    E  E H    Q
|-0-0-9p0-0-10p0-0-10p0-12-|-12-12---------|
|--------------------------|---------------|
|--------------------------|---------------|
|--------------------------|---------------|


      |-3-|  |-3-|  |-3--|
  E E E E E  E E E  E E  E    E  E  E  E H
|-0-0-9p0-0-10p0-0-10p0-12-|-12-12-14-14------|
|--------------------------|------------------|
|--------------------------|------------------|
|--------------------------|------------------|


      |-3-|  |-3-|  |-3--|
  E E E E E  E E E  E E  E    E  E H    Q
|-0-0-9p0-0-10p0-0-10p0-12-|-12-12---------|
|--------------------------|---------------|
|--------------------------|---------------|
|--------------------------|---------------|


      |-3-|  |-3-|  |-3--|
  E E E E E  E E E  E E  E    E  E  E  E H
|-0-0-9p0-0-10p0-0-10p0-12-|-12-12-14-14------|
|--------------------------|------------------|
|--------------------------|------------------|
|--------------------------|------------------|


      |-3-|  |-3-|  |-3--|
  E E E E E  E E E  E E  E    E  E H    Q
|-0-0-9p0-0-10p0-0-10p0-12-|-12-12---------|
|--------------------------|---------------|
|--------------------------|---------------|
|--------------------------|---------------|


                              ~~~~~~
      |-3-|  |-3-|  |-3--|
  E E E E E  E E E  E E  E    Q   Q  Q  Q
|-0-0-9p0-0-10p0-0-10p0-12-|-12--10--------|
|--------------------------|---------5--3--|
|--------------------------|---------------|
|--------------------------|---------------|


 Sitar Solo
          |-3-| |-3-|   |-3-| |-3-|
  E E E E E E E E E E   E E E E E E  E  E Q
|---------------------|-------------13-13-9----|
|-----2---------------|-3-4-5-------13-13-9----|
|---------------3-4-5-|-------3-4-5------------|
|-0-0---0-3-4-5-------|------------------------|


                                        |-3-| |-3-|   |-3-| |-3-|
  E E E E H      H    Q   Q     E E E E E E E E E E   E E E E E E  E  E Q
|--------------|--------------|---------------------|-------------13-13-9--|
|--------------|--------------|-----2---------------|-3-4-5-------13-13-9--|
|--------------|--------------|---------------3-4-5-|-------3-4-5----------|
|-0-0-0-0------|---------12\--|-0-0---0-3-4-5-------|----------------------|


                                        |-3-| |-3-|   |-3-| |-3-|
  E E E E H      H      H       E E E E E E E E E E   E E E E E E  E  E Q
|--------------|------<12>----|---------------------|-------------13-13-9--|
|--------------|------<12>----|-----2---------------|-3-4-5-------13-13-9--|
|--------------|--------------|---------------3-4-5-|-------3-4-5----------|
|-0-0-0-0------|--------------|-0-0---0-3-4-5-------|----------------------|


                      |-3-|             |-3-| |-3-|   |-3-| |-3-|
  E E E E H      H    E E E Q   E E E E E E E E E E   E E E E E E  E  E Q
|--------------|--------------|---------------------|-------------13-13-9--|
|--------------|------5-4-3---|-----2---------------|-3-4-5-------13-13-9--|
|--------------|------------5-|---------------3-4-5-|-------3-4-5----------|
|-0-0-0-0------|--------------|-0-0---0-3-4-5-------|----------------------|


                  |--3--|  |--3--|
  E E E E H       q  q  q  q  q  q
|--------------|-------------------|
|--------------|-------------------|
|--------------|-------------------|
|-0-0-0-0------|-12-13-14-15-16-17-|


          |-3-| |-3-|   |-3-| |-3-|
  E E E E E E E E E E   E E E E E E  E  E Q
|---------------------|-------------13-13-9--|
|-----2---------------|-3-4-5-------13-13-9--|
|---------------3-4-5-|-------3-4-5----------|
|-0-0---0-3-4-5-------|----------------------|


                                    |-3-| |-3-|   |-3-| |-3-|
  E E E E H      W          E E E E E E E E E E   E E E E E E  E  E Q
|--------------|----------|---------------------|-------------13-13-9--|
|--------------|----------|-----2---------------|-3-4-5-------13-13-9--|
|--------------|----------|---------------3-4-5-|-------3-4-5----------|
|-0-0-0-0------|----------|-0-0---0-3-4-5-------|----------------------|


                                       |-3-| |-3-|   |-3-| |-3-|
  E E E E H      H    Q  E E   E E E E E E E E E E   E E E E E E  E  E Q
|--------------|---------5-3-|---------------------|-------------13-13-9--|
|--------------|-------------|-----2---------------|-3-4-5-------13-13-9--|
|--------------|-------------|---------------3-4-5-|-------3-4-5----------|
|-0-0-0-0------|-------------|-0-0---0-3-4-5-------|----------------------|


 Breakdown
  E E Q   H       E E Q   H       E E Q   H       E E Q   H
|--------13\----|--------13\----|--------13\----|--------13\----|
|--------12\----|--------12\----|--------12\----|--------12\----|
|---------------|---------------|---------------|---------------|
|-0-0-----------|-0-0-----------|-0-0-----------|-0-0-----------|


 Verse/Outro
          |--3--|               |--3--|
  E E Q   E  E  E  Q    E E Q   E  E  E  Q
|--------13-13-14-13--|--------13-13-14-13--|
|--------12-12-13-12--|--------12-12-13-12--|
|---------------------|---------------------|
|-0-0-----------------|-0-0-----------------|


          |-3-| |-3-|   |-3-| |-3-|
  E E E E E E E E E E   E E E E E E  E  E Q
|---------------------|-------------13-13-9--|
|-----2---------------|-3-4-5-------13-13-9--|
|---------------3-4-5-|-------3-4-5----------|
|-0-0---0-3-4-5-------|----------------------|


                                          |-3-| |-3-|   |-3-| |-3-|
  E E E E H      E E E E  H       E E E E E E E E E E   E E E E E E  E  E Q
|--------------|----------------|---------------------|-------------13-13-9--|
|--------------|----------------|-----2---------------|-3-4-5-------13-13-9--|
|--------------|----------------|---------------3-4-5-|-------3-4-5----------|
|-0-0-0-0------|-0-0-0-0-12\----|-0-0---0-3-4-5-------|----------------------|


                       |--3--|  |--3--|  |--3--|
  E E E E H      E  E  E  E  E  E  E  E  E  E  E
|--------------|------14-13-12-------------------|
|--------------|---------------14-13-12----------|
|--------------|---12-------------------14-13-12-|
|-0-0-0-0------|---------------------------------|


          |-3-| |-3-|   |-3-| |-3-|
  E E E E E E E E E E   E E E E E E  E  E Q
|---------------------|-------------13-13-9----|
|-----2---------------|-3-4-5-------13-13-9----|
|---------------3-4-5-|-------3-4-5------------|
|-0-0---0-3-4-5-------|------------------------|


                  |--3--|  |--3--|
  E E E E H       q  q  q  q  q  q
|--------------|-------------------|
|--------------|-------------------|
|--------------|-13-14-15-15-14-13-|
|-0-0-0-0------|-12-13-14-14-13-12-|


          |-3-| |-3-|   |-3-| |-3-|
  E E E E E E E E E E   E E E E E E  E  E Q
|---------------------|-------------13-13-9--|
|-----2---------------|-3-4-5-------13-13-9--|
|---------------3-4-5-|-------3-4-5----------|
|-0-0---0-3-4-5-------|----------------------|


                 |--3--|  |-3--|           |-3-| |-3-|   |-3-| |-3-|
  E E E E H      q  q  q  q  q q   E E E E E E E E E E   E E E E E E  E  E Q
|--------------|-----------------|---------------------|-------------13-13-9--|
|--------------|-----------------|-----2---------------|-3-4-5-------13-13-9--|
|--------------|-----------------|---------------3-4-5-|-------3-4-5----------|
|-0-0-0-0------|-9-10-11-11-10-9-|-0-0---0-3-4-5-------|----------------------|


                                        |-3-| |-3-|   |-3-| |-3-|
  E E E E H      H    Q   Q     E E E E E E E E E E   E E E E E E  E  E Q
|--------------|--------------|---------------------|-------------13-13-9--|
|--------------|--------------|-----2---------------|-3-4-5-------13-13-9--|
|--------------|--------------|---------------3-4-5-|-------3-4-5----------|
|-0-0-0-0------|---------12\--|-0-0---0-3-4-5-------|----------------------|


                 |--3--|   |--3--|
  E E E E H      q  q  q   q  q  q   q  Q    H
|-------------|--------------------|--------------*|
|-------------|--------------------|--------------*|
|-------------|--------------------|--------------*|
|-0-0-0-0-----|-12-12-12--12-11-10-|-0------------*|


Duration Legend
---------------
W - whole; H - half; Q - quarter; E - 8th; S - 16th; T - 32nd; X - 64th; a - acciaccatura
+ - note tied to previous; . - note dotted; .. - note double dotted
Uncapitalized letters represent notes that are staccato (1/2 duration)
Irregular groupings are notated above the duration line
Duration letters will always appear directly above the note/fret number it represents the
duration for.  Duration letters with no fret number below them represent rests.  Multi-
bar rests are notated in the form Wxn, where n is the number of bars to rest for.  Low
melody durations appear below the staff

Tablature Legend
----------------
 h   - hammer-on
 p   - pull-off
 b   - bend
 pb  - pre-bend
 r   - bend release (if no number after the r, then release immediately)
 /\  - slide into or out of (from/to "nowhere")
 s   - legato slide
 S   - shift slide
  - natural harmonic
[n]  - artificial harmonic
n(n) - tapped harmonic
 ~   - vibrato
 tr  - trill
 T   - tap
 TP  - trem. picking
 PM  - palm muting
\n/  - tremolo bar dip; n = amount to dip
 \n  - tremolo bar down
 n/  - tremolo bar up
/n\  - tremolo bar inverted dip
 =   - hold bend; also acts as connecting device for hammers/pulls
 <>  - volume swell (louder/softer)
 x   - on rhythm slash represents muted slash
 o   - on rhythm slash represents single note slash

Misc Legend
-----------
 |  - bar
||  - double bar
||o - repeat start
o|| - repeat end
*|  - double bar (ending)
 :  - bar (freetime)
 $  - Segno
 &  - Coda
Tempo markers -  = BPM(8/16=s8/s16), where s8 = swing 8ths, s16 = swing 16ths


***************************************************************************************
***************************************************************************************





Comments


Popular Les Claypool tabs & chords
Amanitas Bass Tabs
Carolina Rig Bass Tabs
Filipino Ray 1 Bass Tabs
Iowan Gal Bass Tabs
Nothin' Ventured Bass Tabs
Of Whales And Woe Bass Tabs
Off-white Guilt Bass Tabs
One Better 1 Bass Tabs
Phantom Patriot Bass Tabs
South Park Theme Tabs


Song lyrics



↑ Back to top | Tablatures and chords are parodies/interpretations of the original songs. You may use it for private study, scholarship, research or language learning purposes only
© 2014 AZChords.com Contact us | Privacy policy | DMCA | Add/correct tabs | Request tabs | Top 50 tabs