» » »

Frutto Acerbo Tabs (ver.1)

Artists:  A B C D E F G H I J K L M N O P Q R S T U V W X Y Z # 

Frutto Acerbo Tabs (ver.1)

Le Orme
Rating:
0/5 (0 votes)

Hard to play? Try these video lessons and learn fast.
                --------------------------------------

Intro/Verse:

Guitar 1:  D variations

E|-----2---3---2---0---2---0---2---3-|
B|----3---3---3---3---3---3---3---3--|
G|---2---0---2---0---2---0---2---0---|
D|--0---0---0---0---0---0---0---0----|
A|-----------------------------------|
E|-----------------------------------|

Guitar 2:

E|-----------------|
B|-----------------|
G|----2------------|
D|--0----0-20-00-0-|
A|02----2----------|
E|-----------------|


Verse:

D
Sotto il letto il diavolo cantava già vittoria
E nel buio la paura prima di dormire
Per il primo giuramento che ho strappato al sole

Chorus:

Em                   A
A primavera il sasso nello stagno
Em                   A
Che rimbalzava così forte in noi
Bm                    D
Nel rotolarci sotto il fieno
F#m                         G
Soffriva il cuore frutto ancora acerbo

Verse2:

E l'estate a sera via di corsa all'osteria
Per ripetere a mio padre "la minestra è fredda"
Nel silenzio verso casa la sua mano triste

Chorus2:

E le ragazze che ridevano
Dietro le spalle dei segreti ardori
Io mi sognavo di fermarle
Ma la mia voce si perdeva al vento.

Verse3:

Venne poi l'inverno dietro il sole grande e bianco
Quanto amore, quanto amore mi scoppiava dentro

Chorus3:

Ricordo ancora quello strano giorno
Dissi sincero "non lo voglio fare"
Ma la pregavo di restare
Per un minuto, un minuto solo. 

--------------------------------------------
Lublin, Poland
22.07.09
            
Hard to play? Try these video lessons and learn fast. | Correct




comments powered by Disqus
↑ Back to top | Tablatures and chords are parodies/interpretations of the original songs. You may use it for private study, scholarship, research or language learning purposes only