» » »

Le Orme, Amico Di Ieri Tabs (ver.1)

Artists:  A B C D E F G H I J K L M N O P Q R S T U V W X Y Z # 

Amico Di Ieri Tabs (ver.1)

Le Orme Tabs
 Rating:
4/5 (4 votes)
Amico Di Ieri lessons Tabs too difficult? Try these video lessons and learn fast
                orme
amico di ieri
                       x2
e-0--0--0--0--2--2--2--2-|8--7-8-7-5-7-5------------------------------------|
b-1--1--1--1--3--3--3--3-|----------------8---7---5-------------------------|
g-2--2--2--2--2--2--2--2-|---------------------------7---5---4-5-4--2-4-2---|
d-2--2--2--2--0--0--0--0-|--------------------------------------------------|
a-0--0--0--0--0--0--0--0-|--------------------------------------------------|
E-0--0--0--0--0--0--0--0-|--------------------------------------------------|


-------------3--|
-------------0--|
0------------0--|
--4---2---0--0--|
-------------2--|
-------------3--|

sol              re
vento d' autunno intriso di sabbia
mi-                      do
posi il tuo velo sulla citta'
re                   la-
i deserto è la tua culla
re                   la-
non conosco la tua eta'
sol              re
porti il ricordo di antichi pionieri
mi-                     do
spinti da un sogno di liberta'
re                   la-
hai disperso i loro canti
re                      la-
li hadati guidati verso il mare
re             sol
a una nuova realta'

e-8--7-8-7---5--7--5--------------------------------------------------|
b--------------------8---7---5----------------------------------------|
g--------------------------------7---5---4-5-4--2-4-2--0--------------|
d----------------------------------------------------------4---2---0--|
a---------------------------------------------------------------------|
E---------------------------------------------------------------------|
ASSOLO ARMONICA TABS PER CHITARRA

e-------------------0------------------------------------------0-------------|
b---------------------3------------------------------------------3----1-0----|
g--4-----5---5b(7)------4--0--------0-0---0----4---5--5b(7)----------------0-|
d------------------------------0-2------2------------------------------------|
a----------------------------------------------------------------------------|
E----------------------------------------------------------------------------|

e--------------------------------3--|
b--0-1--3------------------------0--|
g---------2/4--0--------0-0---0--0--|
d-------------------0-2-----2----0--|
a--------------------------------2--|
E--------------------------------3--|

sol              re
vento d' autunno amico di ieri
mi-                     do
oggi nessuno si cura di te
re                  la-
la tua voce che si alza
re                      la-
toglie il sonno a chi riposa
re                sol
sporca solo la citta'

e-8----7-8-7--5-7-5--------------------------------------------------3--|
b--------------------8--7--5-----------------------------------------0--|
g------------------------------7--5---4-5-4---2-4-2---0--------------0--|
d---------------------------------------------------------4---2---0--0--|
a--------------------------------------------------------------------2--|
E--------------------------------------------------------------------3--|
            
Submit corrections

comments powered by Disqus
↑ Back to top | Le Orme Tabs for Amico Di Ieri. Lyrics for acoustic guitar and electric guitar. Tablatures and chords are parodies/interpretations of the original songs. You may use it for private study, scholarship, research or language learning purposes only