» » »

There Is None Like You Tabs (ver.1)

Artists:  A B C D E F G H I J K L M N O P Q R S T U V W X Y Z # 

There Is None Like You Tabs (ver.1)

Lenny Leblanc
Rating:
5/5 (1 vote)

Hard to play? Try these video lessons and learn fast.
                There is None Like You

This is pretty close to the version he did, but I kinda made it my own.

I’ve yet to find out what the D/F chord actually is, it’s probably an augmented G or something.

pm me if you want the chords

--Standard Tuning--
---Capo 2nd fret---

Order of play-
INTRO x2
VERSE 1
VERSE 2
VERSE 1
VERSE 3
VERSE 3
VERSE 3 OUTRO
OUTRO


  INTRO
  G
e|----------------------3-|
B|-------0-------0h1------|
G|-----2-----2------2-----|
D|---0---------0------0---|
A|------------------------|
E|-3----------------------|



  VERSE 1

|---------------------------------------------------------------------|
|-------0---------|-------3---------|-1-----1-------|-0-----0-1---3---|
|-----2-----2---2-|-----2-----------|-----0---------|-----0-----0---0-|
|---0---------0---|---0-------------|---2-----------|---0---------0---|
|-----------------|-----------------|-3-------------|-2-------3-------|
|-3-----------------2-------------------------------------------------|
          There is none   like        you...

|-0-----3-----------------3---------|-------3---------------3-2-------|
|-----1-----------|-3---------------|-1-------------|-----3-----3---0-|
|---0-------------|-----0-----------|-----0---------|---2---------2---|
|-2---------------|---0-------------|---2-----------|-0---------------|
|-----------------|-2---------------|-0-------------|-----------------|
|---------------------------------------------------------------------|
            noone else can touch my heart like you do...


  VERSE 2

|-------------------------------------------3-------------------------|
|-------0---------|-------3---------|-----------1---|-----0-------0---|
|-----2-------2---|-----2-------2---|-----2-------2-|---0---0---0---0-|
|---0-----------0-|---0-----------0-|---0-----------|-2-------1-------|
|-----------------|-----------------|---------------|-----------------|
|-3-----------------2-----------------1-------------------------------|
          I could  search for all    eternity long            and find

|-------3-----------------2-------------------------------------------|
|-----3---3-----3-|-----3---3-----0-|-------0-------|-------1-3-------|
|---0---------0---|---2---------2---|-----2---------|-----0-------0---|
|-0---------------|-0---------------|---0-----------|---2-----------0-|
|-----------------|-----------------|---------------|-----------------|
|-------------------------------------3---------------0-------2-------|
           there is none    like      you


  VERSE 3

|-------3-----------------1-----------------3-------------------------||
|-0-----------0---|-----3-------3---|-----0---0-----|-----0-------0---||
|---2-----------2-|---2-----------2-|---2---------2-|---0---0---0---0-||
|-----0-----------|-4---------------|-3-------------|-2-------1-------||
|-----------------|-----------------|---------------|-----------------||
|-3-------------------------------------------------------------------||
          I could  search for all    eternity long            and find


|-------3-----------------2---------||----------------------0---------|
|-----3---3-------|-----3---3-------||-------0------|-----1---3-------|
|---0-------0---0-|---2-------2---2-||-----2--------|---0---------0---|
|-0-----------0---|-0-----------0---||---0----------|-2-------0-----0-|
|-----------------|-----------------||--------------|-----------------|
|-----------------------------------||-3------------------------------|
          there is none    like     || you
                                    ||
                                    \/
              On second time thru here cut to verse 3 outro


  VERSE 3 OUTRO

|-------3-------------2-------------3-------------2-----|-------------|
|-----3---3---|-----3---3---|-----3---3---|-----3---3---|-------0-----|
|---0---------|---2---------|---0---------|---2---------|-----2-------|
|-0-----------|-0-----------|-0-----------|-0-----------|---0---------|
|-------------|-------------|-------------|-------------|-------------|
|-------------------------------------------------------|-3-----------|
        There is none               There is none    Like you...


  OUTRO

|-0-2-3-----2-----------------0-------------3-----------------2-------|
|-------3-------3-|---3-3-------1---|-----3---3-----3-|-----3---2-----|
|---------0-------|-0-----0---------|---0---------0---|---2-----------|
|-----------0-----|---------2-------|-0---------------|-0-------------|
|-----2-----------|-----3-------3---|-----------------|---------------|
|---------------------------------------------------------------------|
                                                             There is none  

|-----------------|-------------3-------------3-------/\
|-----------------|-------0-1-----1-|-------0---------\/
|-----------------|-----2-----0-----|-----2-----------/\
|-----------------|---0-------------|---0-------------\/
|-----------------|-----------------|-----------------/\
|-----------------|-3-----------------3---------------\/
  like you...
            
Hard to play? Try these video lessons and learn fast. | Correct




comments powered by Disqus
↑ Back to top | Tablatures and chords are parodies/interpretations of the original songs. You may use it for private study, scholarship, research or language learning purposes only