» » »

Mr Cab Driver Tabs (ver.1)

Artists:  A B C D E F G H I J K L M N O P Q R S T U V W X Y Z # 

Mr Cab Driver Tabs (ver.1)

Lenny Kravitz
Rating:
0/5 (0 votes)

Tabs too difficult? Try these video lessons and learn fast.
                Intro 

   [               2x                  ]
e|---------------------------------------| 
B|---------------------------------------| 
G|---------------------------------------|
D|--7--7-7--5--5-5-5---7--7-7--5--5-5-5--|
A|--7--7-7--5--5-5-5---7--7-7--5--5-5-5--|
E|--5--5-5--3--0-3-0---5--5-5--3--0-3-0--|


Verse

e|-----------------------------------| 
B|-----------------------------------| 
G|-----------------------------------|
D|------------------7-7-9-7-7-7-9-7--|
A|--7-7-9-7-7-7-9-7-5-5-5-5-5-5-5-5--|
E|--5-5-5-5-5-5-5-5------------------|


e|---------------------------------------| 
B|---------------------------------------| 
G|---------------------------------------|
D|--7--7-7--5--5-5-5---7--7-7--5--5-5-5--|
A|--7--7-7--5--5-5-5---7--7-7--5--5-5-5--|
E|--5--5-5--3--0-3-0---5--5-5--3--0-3-0--|


e|-------------------------------------| 
B|-------------------------------------| 
G|-------------------------------------|
D|--7-7-9-7-7-7-9-7-7-7-7-9-7-7-7-9-7--|
A|--5-5-5-5-5-5-5-5-5-5-5-5-5-5-5-5-5--|
E|-------------------------------------|

e|---------------------------------------| 
B|---------------------------------------| 
G|---------------------------------------|
D|--7--7-7--5--5-5-5---7--7-7--5--5-5-5--|
A|--7--7-7--5--5-5-5---7--7-7--5--5-5-5--|
E|--5--5-5--3--0-3-0---5--5-5--3--0-3-0--|

e|--------------------------------| 
B|--------------------------------| 
G|--------------------------------|
D|--9-9-11--9-9-11--7-7-9--9-9-9--|
A|--7-7--7--7-7--7--5-5-5--5-5-5--|
E|--------------------------------|

e|---------------------------------------| 
B|---------------------------------------| 
G|---------------------------------------|
D|--7--7-7--5--5-5-5---7--7-7--5--5-5-5--|
A|--7--7-7--5--5-5-5---7--7-7--5--5-5-5--|
E|--5--5-5--3--0-3-0---5--5-5--3--0-3-0--|


Pre-Chorus

e|-------------------------------------| 
B|-------------------------------------| 
G|-------------------------------------|
D|--7-7-9-7-7-7-9-7-7-7-7-9-7-7-7-9-7--|
A|--5-5-5-5-5-5-5-5-5-5-5-5-5-5-5-5-5--|
E|-------------------------------------|

e|---------------------------------| 
B|---------------------------------| 
G|---------------------------------|
D|---------------------------------|
A|--7-7-9-7-7-7-9-7-7-7-9-7-7-7-9--|
E|--5-5-5-5-5-5-5-5-5-5-5-5-5-5-5--|

e|-------------------------------------| 
B|-------------------------------------| 
G|-------------------------------------|
D|--7-7-9-7-7-7-9-7-7-7-7-9-7-7-7-9-7--|
A|--5-5-5-5-5-5-5-5-5-5-5-5-5-5-5-5-5--|
E|-------------------------------------|

e|---------------------------------------------------| 
B|---------------------------------------------------| 
G|--------------------------------9-9---9---9-9-9-9--|
D|----------------9-9-9-9-9-9-9---9-9-9-9-9-9-9-9-9--|
A|--9-9-9-9-9-9-9-7-7-7-7-7-7-7---7---7---7-------7--|
E|--7-7-7-7-7-7-7------------------------------------|


Chorus

   [            4x                 ]
e|-----------------------------------| 
B|-----------------------------------| 
G|-----------------------------------|
D|-------------------------5--5-5-5--|
A|--7-7-9-7-7-7-9-7-7-7-9--5--5-5-5--|
E|--5-5-5-5-5-5-5-5-5-5-5--3--0-3-0--|


Lyrics

Verse 1

Mr. Cab Driver won't stop to let me in
Mr. Cab Driver don't like my kind of skin
Mr. Cab Driver you're never gonna win

Mr. Cab Driver won't stop to pick me up
Mr. Cab Driver I might need some help
Mr. Cab Driver only thinks about himself
Here we go...

Chorus


Verse 2

Mr. Cab Driver don't like to way I look
He don't like dreads he thinks we're all crooks
Mr. Cab Driver reads too many story books

Mr. Cab Driver pass me up with eyes of fire
Mr. Cab Driver thinks we're all 165'ers
Mr. Cab Driver f*ck you I'm a survivor

Pre Chorus

Let me in... oh huh... doo doo doo doo dooo....

Chorus
            
Tabs too difficult? Try these video lessons and learn fast.


comments powered by Disqus
↑ Back to top | Tablatures and chords are parodies/interpretations of the original songs. You may use it for private study, scholarship, research or language learning purposes only