» » »

Lene Marlin, I Know Tabs (ver.1)

Artists:  A B C D E F G H I J K L M N O P Q R S T U V W X Y Z # 

I Know Tabs (ver.1)

Lene Marlin Tabs
Rating:
0/5 (0 votes)
I Know lessons Tabs too difficult? Try these video lessons and learn fast
                

Intro:

   Am               Am
1|-------0--------|-------0--------|
2|-----1---1---0--|-2---1----------|
3|---2-------2---2|---2------------|
4|----------------|----------------|
5|-0--------------|-0--------------|
6|----------------|----------------|

Verse:

   Am               G/b              F/c              
1|-------0--------|-------3--------|-------1--------|
2|-----1---1---0--|-----3---3---3--|-----1---1---1--|
3|---2-------2---2|---0-------0---0|---2-------2---2|
4|----------------|----------------|----------------|
5|-0--------------|-2--------------|-3--------------|
6|----------------|----------------|----------------|

   G/b              Am               G/b                            
1|-------3--------|-------0--------|-------3-----3--|
2|-----3---3---3--|-----1---1---0--|-----3---3-----0|
3|---0-------0---0|---2-------2---2|---0-------0----|
4|----------------|----------------|----------------|
5|-2--------------|-0--------------|-2--------------|
6|----------------|----------------|----------------|
                           

   Dm               G/b
1|-------0-1-0----|-------3--------|
2|-----3-------3--|-3---3----------|
3|---2-----------2|---0------------|
4|-0--------------|----------------|
5|----------------|-2--------------|
6|----------------|----------------|



   
Chorus:

   C               G/b               Dm                
1|-0-----0-----0--|-------3-----3--|-1-----1-----1--|
2|-----1---1-----1|-----3---3-----3|-----1---3-----3|
3|---0-------0----|---0-------0----|---2-------2----|
4|----------------|----------------|-0--------------|
5|-3--------------|-2--------------|----------------|
6|----------------|----------------|----------------|

   
   Am         G/b   C               G/b                            
1|-------------3--|-0-----0-----0--|-------3--------|
2|-----1---------3|-----1---1-----1|-----3---3---3--|
3|---2---2---0----|---0-------0----|---0-------0---0|
4|----------------|----------------|----------------|
5|-0-------2------|-3--------------|-2--------------|
6|----------------|----------------|----------------|

  F/c              G/b               Dm
1|-------1--------|-------3--------|-------1-----1--|
2|-----1---1---1--|-----3----------|-----3---3-----3|
3|---2-------2---2|---0------------|---2-------2----|
4|----------------|----------------|-0--------------|
5|-3--------------|-2--------------|----------------|
6|----------------|----------------|----------------|
   
     
   Am          G/b  F/c             G/b          Am 
1|-------------3--|-------1--------|----------------|
2|-----1---------3|-----1---1---1--|-----3-------1--|
3|---2---2---0----|---2-------2---2|---0-------2---2|
4|----------------|----------------|----------------|
5|-0-------2------|-3--------------|-2-----0--------|
6|----------------|----------------|----------------|

  
   Dm               G/b          Am  F/c             
1|-------0-1-0----|----------------|-------1--------|
2|-----3-------3--|-----3-------1--|-----1---1---1--|
3|---2-----------2|---0-----------2|---2-------2---2|
4|-0--------------|----------------|----------------|
5|----------------|-2-----0--------|-3--------------|
6|----------------|----------------|----------------|


  F/c
1|-------1--------|
2|-----1----------|
3|---2------------|
4|----------------|
5|-3--------------|
6|----------------|





Outro:

   Am               G/b              Dm              
1|-0-----------0--|-------3--------|-------1-----1--|
2|-----1-0-1-----1|-----3---3---3--|-----3---3-----3|
3|---2-------2----|---0-------0---0|---2-------2----|
4|----------------|----------------|-0--------------|
5|----------------|-2--------------|----------------|
6|----------------|----------------|----------------|

   


C           G/b     C                C
1|-0-----0-----3--|-------0-----0--|-3--------------|
2|-----1---3-----3|-----1---1-----1|----------------|
3|---0-------0----|---0-------0----|----------------|
4|----------------|----------------|----------------|
5|-3-------2------|-3--------------|----------------|
6|----------------|----------------|----------------|
            
Submit corrections

comments powered by Disqus
↑ Back to top | Lene Marlin Tabs for I Know. Lyrics for acoustic guitar and electric guitar. Tablatures and chords are parodies/interpretations of the original songs. You may use it for private study, scholarship, research or language learning purposes only