» » »

Voyager Tabs (ver.1)

Artists:  A B C D E F G H I J K L M N O P Q R S T U V W X Y Z # 

Voyager Tabs (ver.1)

Leloup Jean
Rating:
0/5 (0 votes)

Hard to play? Try these video lessons and learn fast.
                Super le fun à jouer! suffit de trouver le bon rythme!
submitted by johnthewolf

Jean Leloup - Voyager

(figure 1)
e|5-5-5-5-5-5-5-5--2-2-2-2-2-2-2-2--0-0-0-0-0-0-0-0--0-0-0-0-0-0-0-0
B|3-3-3-3-3-3-3-3--3-3-3-3-3-3-3-3--3-3-3-3-3-3-3-3--3-3-3-3-3-3-3-3
G|4-4-4-4-4-4-4-4--4-4-4-4-4-4-4-4--4-4-4-4-4-4-4-4--2-2-2-2-2-2-2-2  X2
D|0-0-0-0-0-0-0-0--0-0-0-0-0-0-0-0--0-0-0-0-0-0-0-0--0-0-0-0-0-0-0-0
A|------------------------------------------------------------------
E|------------------------------------------------------------------

(figure 2)
e|--2-0-0-0-2-0-0-0-2-3--2-0-0-0-2-0-0-0-2--0--0-0-0-0-0-5-5-5-5-5-
B|--3-3-3-3-3-3-3-3-3-3--3-3-3-3-3-3-3-3-3--3--3-3-3-3-3-3-3-3-3-3-   X2
G|--4-4-4-4-4-4-4-4-4-4--4-4-4-4-4-4-4-4-4--4--2-2-2-2-2-2-2-2-2-2-
D|--0-0-0-0-0-0-0-0-0-0--0-0-0-0-0-0-0-0-0--0--0-0-0-0-0-0-0-0-0-0-
A|-----------------------------------------------------------------
E|-----------------------------------------------------------------

(figure 3)
e|-5-5-5-5-5-5-5-5--2-2-2-2-2-2-2-2---
B|-3-3-3-3-3-3-3-3--3-3-3-3-3-3-3-3---
G|-2-2-2-2-2-2-2-2--4-4-4-4-4-4-4-4---  X4
D|-0-0-0-0-0-0-0-0--0-0-0-0-0-0-0-0---
A|------------------------------------
E|------------------------------------

Intro:figures 1,2,3,1,2,3,2

figure 1
J'aimerais parfois m'arrêter
Trouver un endroit où rester
Mais je n'aime que voyager
Et je ne fais que passer

    Bm7       A        Em        A
e|-7-7-7-x--5-5-5-5--7-7-7-x--5-5-5-5-
B|-7-7-7-x--5-5-5-5--8-8-8-x--5-5-5-5-
G|-7-7-7-x--6-6-6-6--9-9-9-x--6-6-6-6-
D|-7-7-7-x--7-7-7-7--9-9-9-x--7-7-7-7-
A|-9-9-9-x--7-7-7-7--7-7-7-x--7-7-7-7-
E|-7-7-7-x--5-5-5-5--------x--5-5-5-5-

Parfois j'ai envie de stopper
Soit que je rencontre un ami
Ou que je me sens endormi
Je stationne un peu par ici
Car il faut des fois un accord
Entre la peur et le confort
Entre la voile et puis le port

D        C#m              Bm F#m  Bm F#m  Bm F#m  Bm F#m
Entre la vie et puis la mort
figure 1

figures: 2 et 3
J'aime beaucoup trop le mouvement
Et ne serais-ce qu'un instant
Je n'ose jamais me surprendre
Je n'arrive jamais à me rendre
Et je ne fais que passer
Je ne fais jamais que passer
Et je ne fais que passer*
Je ne fais jamais que passer

*e|-------------------------------------
 B|-------------------------------------
 G|-4--4-6-6~7--9-9~11-9--9-9-11-9-7-2-4
 D|-------------------------------------
 A|-------------------------------------
 E|-------------------------------------

*e|-------------------------------------
 B|-------------------------------------
 G|-4--4-6-6~7--9-9~11-9----------------
 D|-------------------------------------
 A|-2--2-4-4~5--7-7~9--7--7-9-7-5-7-0-1-
 E|-------------------------------------
~~Le petit solo n'est peut-etre pas comme ca le reste de la chanson,
changez de cordes, amusez-vous dans ces notes la...

B               D          E    G
Parfois j'ai envie de stopper
Soit que je rencontre un ami
Ou que je me sens endormi
Je stationne un peu par ici
Car il faut des fois un accord
Entre la peur et le confort
Entre la voile et puis le port

J'aimerais parfois m'arrêter
Trouver un endroit où rester
Mais je n'aime que voyager
Et je ne fais que passer
            
Hard to play? Try these video lessons and learn fast. | Correct




comments powered by Disqus
↑ Back to top | Tablatures and chords are parodies/interpretations of the original songs. You may use it for private study, scholarship, research or language learning purposes only