>
 >
Sang Dencre

Sang Dencre Guitar Tabs

Leloup Jean - Sang Dencre chords, tabs, tablatures, lyrics

Guitar lessons | Add/correct | Request | Top 50 tabs Artists:  A B C D E F G H I J K L M N O P Q R S T U V W X Y Z 0-9

Sang Dencre Guitar Tabs – Leloup Jean

CD, Sheet music, Poster

Do you like Sang Dencre? Share with your friends now
Tabs
Transcrit par: Olivier Mathurin

|-----------------------------|--------------------------|
|-----------------------------|---------------3----------|
|-------------------0-----2---|---4---4---4---4---4---2--|
|-------------2---------------|--------------------------|
|-----------------------------|--------------------------|
|-----------------------------|--------------------------|

|---------------------------|-------------------------|
|---------------3---3---3---|-3-----------3-----------|
|-------2-------2---2---2---|-2---0-------2---0-------|
|---0-------0---------------|---------2-----------2---|
|---------------------------|-------------------------|
|---------------------------|-------------------------|

|----------------------------|--------------------------|
|----------------------------|---------------3----------|
|--------------------0----2--|---4---4---4---4---4---2--|
|---2------2----2------------|--------------------------|
|----------------------------|--------------------------|
|---0------0-----------------|--------------------------|

|---------------------------|-------------------------|
|---------------3---3---3---|-3-----------3-----------|
|-------2-------2---2---2---|-2---0-------2---0-------|
|---0-------0---------------|---------2-----------2---|
|---------------------------|-------------------------|
|---------------------------|-------------------------|

|----------------------------|------------------------------|
|----------------------------|------------------------------|
|--------------------0----2--|------------------------------|
|---2------2----2------------|------------------------------|
|----------------------------|--------2----4-----5----------|
|---0------0-----------------|---0--------------------------|
                Je   me  suis  fait   un  sang d'en-cre pour
                Je   me  suis  fait   un  sang d'en-cre pour

|------------------------------|------------------------------|
|------------------------------|------------------------------|
|------------------------------|-----------------4----2-------|
|-------------4-----5----------|-------------4----------------|
|-------0----------------------|---------0----------------0---|
|------------------------------|------------------------------|
  toi              Comme u - ne pieuvre dans un gros bac chi -
  toi              Comme u - ne pieuvre dans un gros bac chi -

|----------------------|------------------------------|
|----------------------|------------------------------|
|----------------------|------------------------------|
|-------4--5-----------|--------------4----5----------|
|----2-----------------|---------2--------------------|
|-0--------------------|---0--------------------------|
  nois     À  voir  ta  gueule  ce  ma - tin  je  te 
  nois     À  voir  c'matin  les  bo - bos  sur  tes

|----------------------------|------------------------------|
|----------------------------|------------------------------|
|----------------------------|-----------------4----2-------|
|------4--5------------------|------------4-----------------|
|---0------------------------|-------0-------------------0--|
|----------------------------|------------------------------|
  crois     J'ai   bien  fait   de  pen - ser  très  fort  à
  bras      J'ai   bien  fait   de  pen - ser  très  fort  à

|---------------------------|------------------------------|
|---------------------------|----------------3-------------|
|---------------------------|----------0-------------------|
|--------4--5---------------|-----4------------------------|
|-----2---------------------|-3----------------------------|
|--0------------------------|------------------------------|
  toi       J'ai  en - voy - é  des  chansons  dans  les 
  toi       Que  nous  soy - ons  a - mis   ou   a - mou - 

|----------------------------|--------------------------------|
|-----------3----------------|--------------------------------|
|--------0-------------------|------------------2-------------|
|-----4----------------------|-----------2--------------------|
|--3-------------------------|------0-------------------------|
|----------------------------|--------------------------------|
 airs       En    es  -  pé - rant qu'un pi - geon voy - a - 
 reux      Mais   main - te - nant nos  coeurs   battent à  deux

|-------------------------|--------------------------------|
|-------1--3---1--/--0----|----------------------0---------|
|-------------------------|--------------------------------|
|----2--------------------|---------0------2---------------|
|-0-----------------------|--------------------------------|
|-------------------------|--3-----------------------------|
  geur     te  les   chan - te -   rait   par  jour  ou  noir -  
           Je  te    com - prends   beau-coup   plus  que  tu 

|----------------------|--------------------------------|
|-------0--------------|--------------------------------|
|-----2----------------|------------0--------2----------|
|---0------------------|--------------------------------|
|----------------------|--------3-----------------------|
|-3--------------------|---1----------------------------|
 ceur   jusqu'à  c'que  tu  re - viennes________  par i -
 crois    A - lors s'il  te  plaît  la  pro - chai - ne 

|---------------------------|--------------------------------|
|---------1---3---1---------|-------------0------------------|
|---------------------------|---------2----------------------|
|-----2---------------------|-----0--------------------------|
|-0-------------------------|--------------------------------|
|---------------------------|-3------------------------------|
 ci              Par     i -  ci                   Par    i  -  
 fois            Ap - pelle - moi                  Ap - pelle -

|----------------------------|--------------------------------|
|----------------------------|---------1--3-----5-------------|
|-------------0---2----------|--------------------------------|
|----------------------------|-----2--------------------------|
|-----3---3------------------|--0-----------------------------|
|-1--------------------------|--------------------------------|
 ci
 moi

|-------------------------|--------------------------------|
|---------5-------3----1--|----------------0---------------|
|-------------------------|---------2----------------------|
|-------------------------|----0---------------------------|
|-----0-------------------|--------------------------------|
|-------------------------|-3------------------------------|
                            Ne me ra  -  conte   plus  ja - 
                            En - fin  au - jour - d'hui  te  

|-------------------------|-------------------------------|
|-------------------------|--------------1----------------|
|---------------------2---|-------------------------------|
|---------------5---------|---------2---------------------|
|---------3---------------|---0---------------------------|
|---1---------------------|-------------------------------|
   mais  de   sa - lades     Dis - moi toujours quand tu
   re  -  voi - là            À   voir les ci - ca - tri -  

|-------------------------|-------------------------------|
|-----------1----3--/--1--|----------------0--------------|
|-------------------------|------------2------------------|
|-----2-------------------|--------0----------------------|
|-0-----------------------|-------------------------------|
|-------------------------|---3---------------------------|
  te  sens  ma - lade       J'ai une é - pau - le  bour - 
 ces  sur  tes  bras        J'ai  bien  fait  de  pen - ser

|-------------------------|-------------------------------|
|-------------------------|--------------------1----------|
|-----------------2-------|-------------------------------|
|------------5------------|-------------2-----------------|
|--------3----------------|---0---------------------------|
|---1---------------------|-------------------------------|
  rée  de  pou - voirs  Il  pa-raît   qu'elle  aide à pleu - 
 très fort  à     toi        Je me  suis    fait  un   sang

|-------------0--------------|-------------------------------|
|-----------------1-----3----|---------------3---------------|
|--------------------------0-|-----------0-------------------|
|-------2--------------------|-------4-----------------------|
|--0-------------------------|---3---------------------------|
|----------------------------|-------------------------------|
  rer dans  le  noir  Dans le   noir
 d'encre  pour  toi

|-------------------------|---------------0----------------|
|----------3--------------|--------------------------------|
|-------0-----------------|-------------------0------------|
|----4--------------------|-----------4--------------------|
|-------------------------|-------2------------------------|
|-------------------------|---0----------------------------|

|---0---------------------|--------------------------------|
|-------------------------|-----------------0--------------|
|---0--------------0--2---|------------2-------------------|
|---4-----------2---------|-------0------------------------|
|---2---------------------|--------------------------------|
|---0---------------------|---3----------------------------|
                             Je  me  suis  fait  un  sang

|-------------------------|-------------------------------|
|-------------------------|------------------1------------|
|--------------------2----|-------------------------------|
|--------------5----------|-------------------------------|
|--------3----------------|---0----0--0-------------------|
|--1----------------------|-------------------------------|
 d'en - cre  pour  toi      Comme  u-ne  pieuvre  dans  un

|-------------------------|-------------------------------|
|-------------------3-1---|---------------0---------------|
|-----------------------2-|----------2--------------------|
|-------------------------|-----0-------------------------|
|---0---------0-----------|-------------------------------|
|-------------------------|-3-----------------------------|
  gros  bac  chi - nois     À  voir  c'ma - tin  les  bo - 

|-------------------------|-------------------------------|
|-------------------------|-----------------1-------------|
|-------------------2-----|-------------------------------|
|-------------5-----------|-------------------------------|
|-------3-----------------|---0----0----0-----------------|
|-1-----------------------|-------------------------------|
 bos  sur   tes   bras      J'ai  bien  fait  de  pen - ser

|-------------------------|-------------------------------|
|------------------3-1----|--------------3----------------|
|-----------------------2-|----------0--------------------|
|-------------------------|------4------------------------|
|--0-----------0----------|--3----------------------------|
|-------------------------|-------------------------------|
  très  fort   à   toi      Je  me  suis  fait  un  sang  

|-------------------------|-------------------------------|
|-------------------------|---------------3---------------|
|-------------------0--0--|-----------0-------------------|
|--------------4----------|------4------------------------|
|---------0---------------|-------------------------------|
|-------------------------|-0-----------------------------|
  d'en - cre   pour   toi   Je  me  suis  fait  un  sang

|-------------------------|-------------------------------|
|-------------------------|--------------3----------------|
|--------------------0-0--|----------0--------------------|
|--------------4---------2|------4------------------------|
|-------------------------|--3----------------------------|
|--0-----0----------------|-------------------------------|
  d'en - cre   pour   toi   Je  me  suis  fait  un  sang

|-------------------------|-------------------------------|
|-------------------------|-------------------------------|
|-------------------2--0--|----------------0--------------|
|--------------4----------|-------------------------------|
|---------0---------------|-------------------------------|
|-------------------------|-0-------0---------------------|
  d'en - cre   pour   toi   Le  col-lier____ que  tu  m'a - 

|-------------------------|-------------------------------|
|-------------------------|--------------1----------------|
|--------------------0----|---------2----------0-------2--|
|--------0-----0----------|------2------------------------|
|-------------------------|--0----------------------------|
|---3---------------------|-------------------------------|
  vais   fa - bri - qué     Hi-er  à  cinq  heures  moins

|-------------------------|-------------------------------|
|---------------------1---|-------------------0-----------|
|----------------0--------|-------------------0-----------|
|----------2-------------0|-------------------------2--0--|
|---3---------------------|-------------------------------|
|-------------------------|--0-----0-----0----------------|
  quart  s'est   bri - sé   Que  s'est - il  pas - sé   à 

|--------------------------|------------------------------|
|---------------------0----|----------0----1-----------3--|
|---------------2--------0-|------------------------------|
|--------0-----------------|------2-----------------------|
|--------------------------|--0---------------------------|
|--3-----------------------|------------------------------|
 cinq  heures  moins  quart  Pro - ba - ble - ment qu'on te 

|--0------------------------|-------------------------------|
|--------------------3------|-------------------------------|
|--------------0----------0-|--------------0----------------|
|---------4-------------4---|----------4--------------------|
|---------------------------|------2------------------------|
|---------------------------|--0----------------------------|
  vou - lait  du  mal         Je  me  suis  fait  un  sang 
 
|---------------------------|-------------------------------|
|------------------0--------|------------0----1---------3---|
|-------------2-------------|-------------------------------|
|--------0------------------|-------2-----------------------|
|---------------------------|-0-----------------------------|
|---3------------------3--5-|-------------------------------|
  d'en - cre pour  toi     Comme   u-ne  pieuvre dans  un 

|-------------------------|------------------------------|
|---------------3---------|------------------------------|
|----------0----------0---|---------------0--------------|
|------4-----------2------|-----------4------------------|
|--3----------------------|-----2------------------------|
|-------------------------|-0----------------------------|
 gros  bac  chi - nois      À  voir   c'ma-tin  tes  bo -

|-------------------------|------------------------------|
|--------------0----------|-------------0----1-----------|
|----------2-------0------|------------------------------|
|------0------------------|-------2----------------------|
|-------------------------|-0----------------------------|
|--3----------------------|------------------------------|
  bos  sur  tes  bras     J'ai  bien  fait  de  pen - ser

|-------------------------|------------------------------|
|--------------1----------|------------------3--3--------|
|----------0--------------|------0--2--4--4--4--4--4--2--|
|------2------------------|---2--------------------------|
|--3----------------------|------------------------------|
|-----------------0---3---|---0--------------------------|
   très  fort____  à         toi

|--------------------------|------------------------------|
|--------------------------|------------------------------|
|---------2---2--2---0-----|---0--------------------------|
|-----0------------------4-|--------4----2----4----4------|
|--------------------------|----------------------------2-|
|--------------------------|------------------------------|

|-------------|
|-------------|
|---0---------|
|---2---------|
|-------------|
|---0---------1





Comments


Popular Leloup Jean tabs & chords
1990 Bass Tabs
1990 1 Bass Tabs
Cruel Song Chords
I Lost My Baby Chords
La Chambre Chords
Le Dome Chords
Voyager Tabs


Song lyrics



↑ Back to top | Tablatures and chords are parodies/interpretations of the original songs. You may use it for private study, scholarship, research or language learning purposes only
© 2014 AZChords.com Contact us | Privacy policy | DMCA | Add/correct tabs | Request tabs | Top 50 tabs