» » »

Led Zeppelin, You Shook Me Tabs (ver.1)

Artists:  A B C D E F G H I J K L M N O P Q R S T U V W X Y Z # 

You Shook Me Tabs (ver.1)

Led Zeppelin Tabs
 Rating:
4/5 (4 votes)
You Shook Me lessons Tabs too difficult? Try these video lessons and learn fast
1
                YOU SHOOK ME
Led Zeppelin
"Led Zeppelin I"

(Willie Dixon/J.B. Lenoir)
INTRO:
e-|-------------------------------|-----------------------------------------|
B-|-17-17-15-17--15-12------------|--\17-17-15-17-15--12----12--------------|
G-|--------------------14-12------|----------------------14----14-12^-------|
D-|--------------------------14\0-|-----------------------------------14\0--|
A-|-------------------------------|-----------------------------------------|
E-|-------------------------------|-----------------------------------------|

e-|--------------------------|-------------//-----------||
B-|--------------------------|-------------//-----------||
G-|-------14-12^-------------|-------------//-----------||
D-|-12-14--------14^-12-14-12|-------------//-----------||
A-|--------------------------|-------------//-----------||
E-|--------------------------|-------------//-----------||

VERSE:
e-|-----------------------------------|------------------------------------|
B-|-----------------------------------|------------------------------------|
G-|-----------------------------------|---------------12-------------------|
D-|--2--7--5--2--2--2--2--2---7--5--2-|------12---14-------14--------------|
A-|--2--7--5--2--2--4--4--2---5--5--2-|---14---------------------12\0------|
E-|--0--5--3--0--0--0--0--0---5--3--0-|------------------------------------|
       You  Know You Shook Me,         You shook me all night long

e-|-------------------------|----------------------------------------------|
B-|-------------------------|----------------------------------------------|
G-|-------------------------|----------------12----------------------------|
D-|--2--7--5--2--2--2--2--2-|-------12--14--------14--12-14\0--------------|
A-|--2--7--5--2--2--4--4--2-|--14------------------------------------------|
E-|--0--5--3--0--0--0--0--0-|----------------------------------------------|
                              You know you shook me baby

e-|-------------------------------|----------------------------------------|
B-|-------------------------------|----------------------------------------|
G-|--------------12---------------|----------------------------------------|
D-|------12---14------14----12\0--|--2--7--5--2--2--2--2--2----------------|
A-|-14----------------------------|--2--7--5--2--2--4--4--2----------------|
E-|-------------------------------|--0--5--3--0--0--0--0--0----------------|
    You shook me all night long

e-|------------------------------------------------------------------------|
B-|--12-------12----15-12----------17-15-17-15-----------------------------|
G-|------14------14-------14-12\0--------------16-14-16-14--12^------------|
D-|---------------------------------------------------------------14-------|
A-|------------------------------------------------------------------------|
E-|------------------------------------------------------------------------|
    You shook me so hard baby      Baby, baby  please      come home

e-|-----------------------|
B-|-----------------------|  
G-|-------14-12^----------|   
D-|----14--------14^-12\0-|   
A-|-14--------------------|   
E-|-----------------------|

VERSE:
e-|-----------------------------------|------------------------------------|
B-|-----------------------------------|------------------------------------|
G-|-----------------------------------|---------------12-------------------|
D-|--2--7--5--2--2--2--2--2---7--5--2-|------12---14-------14--------------|
A-|--2--7--5--2--2--4--4--2---5--5--2-|---14---------------------12\0------|
E-|--0--5--3--0--0--0--0--0---5--3--0-|------------------------------------|
        I have a bird that whistles,	and I have a bird that sings.

e-|-------------------------|----------------------------------------------|
B-|-------------------------|----------------------------------------------|
G-|-------------------------|----------------12----------------------------|
D-|--2--7--5--2--2--2--2--2-|-------12--14--------14--12-14\0--------------|
A-|--2--7--5--2--2--4--4--2-|--14------------------------------------------|
E-|--0--5--3--0--0--0--0--0-|----------------------------------------------|
				I have a bird that whistles,

e-|-------------------------------|----------------------------------------|
B-|-------------------------------|----------------------------------------|
G-|--------------12---------------|----------------------------------------|
D-|------12---14------14----12\0--|--2--7--5--2--2--2--2--2----------------|
A-|-14----------------------------|--2--7--5--2--2--4--4--2----------------|
E-|-------------------------------|--0--5--3--0--0--0--0--0----------------|
     and I have a bird that sings

e-|-----------------------------------------22^-22^-22^-22^-22^-22--19--------
B-|------------------15--12--------------------------------------------22-----
G-|-14-14^-14-14^-14--------14--12\0------------------------------------------
D-|---------------------------------------------------------------------------
A-|---------------------------------------------------------------------------
E-|---------------------------------------------------------------------------
    I have a bird  won't do nothin'    AAAAAHHH  (Lets see him do that now)

e-|-19--------------------------------------------------------19-|
B-|----22-19^-----------22-20-22-22-20^-----------------20-22----|
G-|-----------21-----21-----------------21-19-21-19--21----------|
D-|---------------21---------------------------------------------|
A-|--------------------------------------------------------------|
E-|--------------------------------------------------------------|
                       Buy a diamond ring yeah!

SOLOS

e-|---------------------------------------------------------------------------
B-|---------------------------------------------------------------------------
G-|---------------------------------------------------------------------------
D-|--2-7-5-2-2-2-2-2-2-7-5-2-2-2-2-2-2-7-5-2-2-2-2-2-2-2-7-5-2-2-2-2-2-2-2-2--
A-|--2-7-5-2-2-4-4-2-2-5-5-2-2-4-4-2-2-5-5-2-2-2-4-4-2-2-5-5-2-2-2-4-4-2-2-2--
E-|--0-5-3-0-0-0-0-0-0-5-3-0-0-0-0-0-0-5-3-0-0-0-0-0-0-0-5-3-0-0-0-0-0-0-0-0--

e-|---------------------------------------------------------------------------
B-|---------------------------------------------------------------------------
G-|---------------------------------------------------------------------------
D-|-5-5-5-5-5-5-5-5-5-5-5-5-5-5-5-5-5-5-2-2-2-2-2-2-7-5-2-2-2-2-2-2-2-2-3-7-9-
A-|-7-5-7-7-9-9-7-7-5-7-3-7-9-9-7-3-7-3-2-2-2-4-4-2-5-5-2-2-2-4-4-2-2-2-3-7-9-
E-|-7-3-7-7-7-7-7-7-3-7-3-7-7-7-7-3-7-3-0-0-0-0-0-0-5-3-0-0-0-0-0-0-0-0-5-5-7-

e-|-7-------------------------------------------------------------------------
B-|-7-------------------------------------------------------------------------
G-|-8-------------------------------------------------------------------------
D-|-9---------------------7---------5-5---------7-7-5-5-4-4-2-2---------------
A-|-9---------------------7-----5-7-----7-5-7-7-7-7-5-5-4-4-2-2---------------
E-|-7---------------------5--5-7----------------5-5-3-3-2-2-0-0---------------

VERSE:
e-|-----------------------------------|------------------------------------|
B-|-----------------------------------|------------------------------------|
G-|-----------------------------------|---------------12-------------------|
D-|--2--7--5--2--2--2--2--2---7--5--2-|------12---14-------14--------------|
A-|--2--7--5--2--2--4--4--2---5--5--2-|---14---------------------12\0------|
E-|--0--5--3--0--0--0--0--0---5--3--0-|------------------------------------|
     You  know you shook me, baby,         You shook me all night long.

e-|-------------------------|----------------------------------------------|
B-|-------------------------|----------------------------------------------|
G-|-------------------------|----------------12----------------------------|
D-|--2--7--5--2--2--2--2--2-|-------12--14--------14--12-14\0--------------|
A-|--2--7--5--2--2--4--4--2-|--14------------------------------------------|
E-|--0--5--3--0--0--0--0--0-|----------------------------------------------|
     I know you really, really did, baby.

e-|-------------------------------|----------------------------------------|
B-|-------------------------------|----------------------------------------|
G-|--------------12---------------|----------------------------------------|
D-|------12---14------14----12\0--|--2--7--5--2--2--2--2--2----------------|
A-|-14----------------------------|--2--7--5--2--2--4--4--2----------------|
E-|-------------------------------|--0--5--3--0--0--0--0--0----------------|
    I said you shook me.           You shook me all night long.

e-|-------------------------------------------15^-15-15^-12-------------------
B-|---------------------------------15^-12-15---------------------------------
G-|--14^-14-12-14-12-14-12-14^------------------------------------------------
D-|---------------------------------------------------------------------------
A-|---------------------------------------------------------------------------
E-|---------------------------------------------------------------------------
     You   shook   me   soo         hard   baby

e-|---------------15^-15^-----------------15^-15^15----------15^-15-12--12----
B-|-------------------------------------------------------------------15--15--
G-|---------------------------------------------------------------------------
D-|---------------------------------------------------------------------------
A-|---------------------------------------------------------------------------
E-|---------------------------------------------------------------------------
        Babe....               Ah Ahh...              Ah Ahhhh...

e-|--------15^-15-12--12-------------17^-12-12-------17^v^-12-12--------------
B-|-----------------15--15----------------------------------------------------
G-|---------------------------------------------------------------------------
D-|---------------------------------------------------------------------------
A-|---------------------------------------------------------------------------
E-|---------------------------------------------------------------------------
    Ah Ahhhhh...              Ah Ahhhh...       Ah Ahhh...

    Coda:
e-|-----------------------------------------------------12-15-15^v^v^v^-------
B-|-----------------------------------------------12-15-----------------------
G-|---14^v^v^-----------------------------------------------------------------
D-|---------------------------------------------------------------------------
A-|---------------------------------------------------------------------------
E-|---------------------------------------------------------------------------
                  You shook me all night long...

e-|-15-12----12\0--------------------------------------------||
B-|-------15-------------------------------------------------||
G-|----------------------------------------------------------||
D-|------------------2/7\2-----------------------------------||
A-|------------------2/7\2-----------------------------------||
E-|------------------0/5\0-----------------------------------||
                  You shook me all night long.
            
Submit corrections

comments powered by Disqus
↑ Back to top | Led Zeppelin Tabs for You Shook Me. Lyrics for acoustic guitar and electric guitar. 1 Tablatures and chords are parodies/interpretations of the original songs. You may use it for private study, scholarship, research or language learning purposes only