» » »

Led Zeppelin, Whole Lotta Love Tabs (ver.3)

Artists:  A B C D E F G H I J K L M N O P Q R S T U V W X Y Z # 

Whole Lotta Love Tabs (ver.3)

Led Zeppelin Tabs
 Rating:
4/5 (4 votes)
Whole Lotta Love lessons Tabs too difficult? Try these video lessons and learn fast
                song - whole lotta love
band - led zeppelin



this is my take on the song, i dunno if its right. the solo may be a bit off.
correct me please.



intro

e|----------------------------------------------------------------------|
b|----------------------------------------------------------------------|
g|--9-9-9-9--11--x-x--11--x-x--11--x-x--11--x-x--11--x-x--11--x-x--11---|
d|--9-9-9-9--11--x-x--11--x-x--11--x-x--11--x-x--11--x-x--11--x-x--11---|
a|--0-7-0-7---9--x-x---9--x-x---9--x-x---9--x-x---9--x-x---9--x-x---9---|
E|----------------------------------------------------------------------|



main riff


e|---------------------------------|
b|---------------------------------|
g|-9-9-9-9--11--x-x--11--x-x--11---|
d|-9-9-9-9--11--x-x--11--x-x--11---|
a|-0-7-0-7---9--x-x---9--x-x---9---|
E|---------------------------------|





Solo:

e -------------12--------------------------------------|
B ----10/12-------15--12-------------------------------|
G ------------------------15p14p12--14p12--14(16)-----|
D -----------------------------------------------------|
A -----------------------------------------------------|
E -----------------------------------------------------|

         /-3--\ /-3--\
e -------------------------------------------------|
B -------------------------------------------------|
G -2/4---4p2--0--2p0-0--2p0------------------------|
D ---------------------------2p0--2p0--------------|
A -------------------------------------2-----------|
E ---------------------------------------------0---|


e ----------12-10(12)--12--15--10(12)-|-12 15(19)15--12----15p12-|
B -10(12)--12--------------------------|-------------------14-------|
G --------------------------------------|----------------------------|
D --------------------------------------|----------------------------|
A --------------------------------------|----------------------------|
E --------------------------------------|----------------------------|

  /------3------\     /---3---\
e ----19(21)-19---18-17--15-----15-----|---------------------------17-19----|
B -17------------------------17-----17--|---17-19-19(21)--19(21)--------17-|
G --------------------------------------|------------------------------------|
D --------------------------------------|------------------------------------|
A --------------------------------------|------------------------------------|
E --------------------------------------|------------------------------------|
            
Submit corrections

comments powered by Disqus
↑ Back to top | Led Zeppelin Tabs for Whole Lotta Love. Lyrics for acoustic guitar and electric guitar. Tablatures and chords are parodies/interpretations of the original songs. You may use it for private study, scholarship, research or language learning purposes only