>
 >
Whole Lotta Love

Whole Lotta Love Guitar Tabs

Led Zeppelin - Whole Lotta Love chords, tabs, tablatures, lyrics

Guitar lessons | Add/correct | Request | Top 50 tabs Artists:  A B C D E F G H I J K L M N O P Q R S T U V W X Y Z 0-9

Whole Lotta Love Guitar Tabs – Led Zeppelin

CD, Sheet music, Poster

Do you like Whole Lotta Love? Share with your friends now
TabsTabs v2Tabs v3Tabs v4

Led Zeppelin
"Led Zeppelin II"

    Intro + Main Riff:
e------------------|---------------------------                     ----
b------------------|---------------------------                     ----
g------------------|-9-----------9-----------9-  Continue this then -9\-
d-------0----------|-9-----------9-----------9-                     -9\-
a-------5--------5-|-7-----------7-----------7-                     -7\-
e--5/7-------7-----|----0--0--0-----0--0--0----                     ----
                        P.M.---     P.M.---
    
    Repeat this over for the verses.

    Chorus:
e------------------------------                     
b------------------------------                     
g-9-----------9-----------9--7- continue with the 'D'then repeat this figure  
d-9-----------9-----------9--7-                     
a-7-----------7-----------7--5-                    
e----0--0--0-----0--0--0-------                     
     P.M.---     P.M.---

    then repeat the riff, into and during the verse

    Chorus

    Guitar Solo 
The chord repeated throughout this solo is an E5 at the 7th fret. 
e-----------------12----------------------------------|
b------------)-12-----15-12------------------)/\/\/\--|
g----------14----------------15p14p12-12---14---------|
d-----------------------------------------------------|
a-----------------------------------------------------|
e-----------------------------------------------------|

e--------------------------------------------|
b--------------3-----------------------------|
g----------2/4----4\2-0-2p0-0-2p0------------|
d---------------------------------2p0-2p0----|
a------------------------------------------2-|
e--------------------------------------------|

e--------------------------12---)----)---15---)/\/\/\/\-|
b-------------------)--12-----15---15-------15----------|
g-----------------14------------------------------------|
d-------------------------------------------------------|
a-------------------------------------------------------|  
e-0-----------------------------------------------------|
  
                               2_
e-----------------------------)--(----------------------|
b-----------------17--20--(20)--------------20p17/\/\/\/|
g------------------------------------21p18--------------|
d-------------------------------------------------------|
a-------------------------------------------------------|
e-------------------------------------------------------|
  
                          )
e-----------------------19----19---18--17-------------------------|
b-(17)/\/\/\---------17--------------------20p17--20-17/\/\/\/\/\-|
g-----------------------------------------------------------------|
d-----------------------------------------------------------------|
a-----------------------------------------------------------------|
e-----------------------------------------------------------------|
                             
                             *
e------------------)-----)---)-----19---------------------||
b--------17--19--19----19--19----------17/\/\/\/\/\/\/\/\-||
g---------------------------------------------------------||    * = 1 & half
d---------------------------------------------------------||
a---------------------------------------------------------||
e---------------------------------------------------------||
  
  )                      
14 = a whole bend (if other step then written)  

  )/\/\/\
14        = the bend + vibrato 
   __
  )  (
20    = a whole bend and then release


p = a pull off ( Now Don't be rude ! )

h = hammer on
    
    
    After this it goes back to the riff, until the .....

    Interlude
During this the band is tacet (Silent), until the 2 end chords which are
an E at the 7th fret, then an A at the 5th fret sustained over a longer 
time

    Outro:
Well really, you could guess by now. Do the riff until it hurts, and fade out
What a legend of a song.

12/11/96





Comments


Popular Led Zeppelin tabs & chords
Heartbreaker Drum Tabs
Bring It On Home 1 Tabs
I Got A Women Tabs
In My Time Of Dying 1 Tabs
Living Loving Maid Tabs
No Quarter 4 Tabs
No Quarter Live Tabs
The Rain Song 1 Tabs
Over The Hills And Far Away Ukulele
Tangerine Ukulele


Song lyrics



↑ Back to top | Tablatures and chords are parodies/interpretations of the original songs. You may use it for private study, scholarship, research or language learning purposes only
© 2014 AZChords.com Contact us | Privacy policy | DMCA | Add/correct tabs | Request tabs | Top 50 tabs