» » »

Led Zeppelin, Whole Lotta Lo\/E Tabs (ver.1)

Artists:  A B C D E F G H I J K L M N O P Q R S T U V W X Y Z # 

Whole Lotta Lo\/E Tabs (ver.1)

Led Zeppelin Tabs
 Rating:
4/5 (4 votes)
Whole Lotta Lo\/E lessons Tabs too difficult? Try these video lessons and learn fast
                Whole Lotta Love                                 


                                                                    Led Zeppelin
Guitar 1



                                                                
E||-----------------------------|------------------------------|
B||-----------------------------|------------------------------|
G||-----------------------------|------------------------------|
D||----0----0-------------------|------------------------------|
A||----5b---5b-7------7------7--|------7------7------7------7--|
E||--7----7----0--0-0-0--0-0-0--|--0-0-0--0-0-0--0-0-0--0-0-0--|


                                                             
-----------------------------|------------------------------|
-----------------------------|------------------------------|
-----------------------------|------------------------------|
----0----0-------------------|------------------------------|
----5b---5b-7------7------7--|------7------7------7------7--|
--7----7----0--0-0-0--0-0-0--|--0-0-0--0-0-0--0-0-0--0-0-0--|


                                                            
-----------------------------|-----------------------------|
-----------------------------|-----------------------------|
-----------------------------|-----------------------------|
----0----0-------------------|----0----0-------------------|
----5b---5b-7------7------7--|----5b---5b-7------7------7--|
--7----7----0--0-0-0--0-0-0--|--7----7----0--0-0-0--0-0-0--|


                                                            
-----------------------------|-----------------------------|
-----------------------------|-----------------------------|
-----------------------------|-----------------------------|
----0----0-------------------|----0----0-------------------|
----5b---5b-7------7------7--|----5b---5b-7------7------7--|
--7----7----0--0-0-0--0-0-0--|--7----7----0--0-0-0--0-0-0--|


                                                            
-----------------------------|-----------------------------|
-----------------------------|-----------------------------|
-----------------------------|-----------------------------|
----0----0-------------------|----0----0-------------------|
----5b---5b-7------7------7--|----5b---5b-7------7------7--|
--7----7----0--0-0-0--0-0-0--|--7----7----0--0-0-0--0-0-0--|


                                                            
-----------------------------|-----------------------------|
-----------------------------|-----------------------------|
-----------------------------|-----------------------------|
----0----0-------------------|----0----0-------------------|
----5b---5b-7------7------7--|----5b---5b-7------7------7--|
--7----7----0--0-0-0--0-0-0--|--7----7----0--0-0-0--0-0-0--|


                                                        
-----------------------------|-------------------------|
-----------------------------|-------------------------|
-----------------------------|-------------------------|
----0----0-------------------|--0-0-0-0-0----9/--------|
----5b---5b-7------7------7--|------------7------------|
--7----7----0--0-0-0--0-0-0--|-------------------------|


                                                                              
-------------------------|-------------------------|-------------------------|
-------------------------|-------------------------|-------------------------|
-------------------------|-------------------------|-------------------------|
--0-0-0-0-0----9/--------|--0-0-0-0-0----9/--------|--0-0-0-0-0----9/--------|
------------7------------|------------7------------|------------7------------|
-------------------------|-------------------------|-------------------------|


                                                            
-----------------------------|-----------------------------|
-----------------------------|-----------------------------|
-----------------------------|-----------------------------|
----0----0-------------------|----0----0-------------------|
----5b---5b-7------7------7--|----5b---5b-7------7------7--|
--7----7----0--0-0-0--0-0-0--|--7----7----0--0-0-0--0-0-0--|


                                                            
-----------------------------|-----------------------------|
-----------------------------|-----------------------------|
-----------------------------|-----------------------------|
----0----0-------------------|----0----0-------------------|
----5b---5b-7------7------7--|----5b---5b-7------7------7--|
--7----7----0--0-0-0--0-0-0--|--7----7----0--0-0-0--0-0-0--|


                                                            
-----------------------------|-----------------------------|
-----------------------------|-----------------------------|
-----------------------------|-----------------------------|
----0----0-------------------|----0----0-------------------|
----5b---5b-7------7------7--|----5b---5b-7------7------7--|
--7----7----0--0-0-0--0-0-0--|--7----7----0--0-0-0--0-0-0--|


                                                            
-----------------------------|-----------------------------|
-----------------------------|-----------------------------|
-----------------------------|-----------------------------|
----0----0-------------------|----0----0-------------------|
----5b---5b-7------7------7--|----5b---5b-7------7------7--|
--7----7----0--0-0-0--0-0-0--|--7----7----0--0-0-0--0-0-0--|


                                                        
-----------------------------|-------------------------|
-----------------------------|-------------------------|
-----------------------------|-------------------------|
----0----0-------------------|--0-0-0-0-0----9/--------|
----5b---5b-7------7------7--|------------7------------|
--7----7----0--0-0-0--0-0-0--|-------------------------|


                                                                              
-------------------------|-------------------------|-------------------------|
-------------------------|-------------------------|-------------------------|
-------------------------|-------------------------|-------------------------|
--0-0-0-0-0----9/--------|--0-0-0-0-0----9/--------|--0-0-0-0-0----9/--------|
------------7------------|------------7------------|------------7------------|
-------------------------|-------------------------|-------------------------|


                                                                            
------------------|------------------|------------------|------------------|
------------------|------------------|------------------|------------------|
------------------|------------------|------------------|------------------|
------------------|------------------|------------------|------------------|
------------------|------------------|------------------|------------------|
------------------|------------------|------------------|------------------|




                                                               
--------------------|--------------------|--------------------|
--------------------|--------------------|--------------------|
--------------------|--------------------|--------------------|
--------2---2-------|--------2---2-------|--------2---2-------|
--------2---2-------|--------2---2-------|--------2---2-------|
--------0---0-------|--------0---0-------|--------0---0-------|


                                                               
--------------------|--------------------|--------------------|
--------------------|--------------------|--------------------|
--------------------|--------------------|--------------------|
--------2---2-------|--------2---2-------|--------2---2-------|
--------2---2-------|--------2---2-------|--------2---2-------|
--------0---0-------|--------0---0-------|--------0---0-------|


                                                            
-----------------------------|-----------------------------|
-----------------------------|-----------------------------|
-----------------------------|-----------------------------|
----0----0-------------------|----0----0-------------------|
----5b---5b-7------7------7--|----5b---5b-7------7------7--|
--7----7----0--0-0-0--0-0-0--|--7----7----0--0-0-0--0-0-0--|


                                                            
-----------------------------|-----------------------------|
-----------------------------|-----------------------------|
-----------------------------|-----------------------------|
----0----0-------------------|----0----0-------------------|
----5b---5b-7------7------7--|----5b---5b-7------7------7--|
--7----7----0--0-0-0--0-0-0--|--7----7----0--0-0-0--0-0-0--|


                                                            
-----------------------------|-----------------------------|
-----------------------------|-----------------------------|
-----------------------------|-----------------------------|
----0----0-------------------|----0----0-------------------|
----5b---5b-7------7------7--|----5b---5b-7------7------7--|
--7----7----0--0-0-0--0-0-0--|--7----7----0--0-0-0--0-0-0--|


                                                            
-----------------------------|-----------------------------|
-----------------------------|-----------------------------|
-----------------------------|-----------------------------|
----0----0-------------------|----0----0-------------------|
----5b---5b-7------7------7--|----5b---5b-7------7------7--|
--7----7----0--0-0-0--0-0-0--|--7----7----0--0-0-0--0-0-0--|


                                                            
-----------------------------|-----------------------------|
-----------------------------|-----------------------------|
-----------------------------|-----------------------------|
----0----0-------------------|----0----0-------------------|
----5b---5b-7------7------7--|----5b---5b-7------7------7--|
--7----7----0--0-0-0--0-0-0--|--7----7----0--0-0-0--0-0-0--|


                                                        
-----------------------------|-------------------------|
-----------------------------|-------------------------|
-----------------------------|-------------------------|
----0----0-------------------|--0-0-0-0-0----9/--------|
----5b---5b-7------7------7--|------------7------------|
--7----7----0--0-0-0--0-0-0--|-------------------------|


                                                                              
-------------------------|-------------------------|-------------------------|
-------------------------|-------------------------|-------------------------|
-------------------------|-------------------------|-------------------------|
--0-0-0-0-0----9/--------|--0-0-0-0-0----9/--------|--0-0-0-0-0----9/--------|
------------7------------|------------7------------|------------7------------|
-------------------------|-------------------------|-------------------------|


                                                            
-----------------------------|-----------------------------|
-----------------------------|-----------------------------|
-----------------------------|-----------------------------|
----0----0-------------------|----0----0-------------------|
----5b---5b-7------7------7--|----5b---5b-7------7------7--|
--7----7----0--0-0-0--0-0-0--|--7----7----0--0-0-0--0-0-0--|


                                                            
-----------------------------|-----------------------------|
-----------------------------|-----------------------------|
-----------------------------|-----------------------------|
----0----0-------------------|----0----0-------------------|
----5b---5b-7------7------7--|----5b---5b-7------7------7--|
--7----7----0--0-0-0--0-0-0--|--7----7----0--0-0-0--0-0-0--|


                                                            
-----------------------------|-----------------------------|
-----------------------------|-----------------------------|
-----------------------------|-----------------------------|
----0----0-------------------|----0----0-------------------|
----5b---5b-7------7------7--|----5b---5b-7------7------7--|
--7----7----0--0-0-0--0-0-0--|--7----7----0--0-0-0--0-0-0--|


                                                            
-----------------------------|-----------------------------|
-----------------------------|-----------------------------|
-----------------------------|-----------------------------|
----0----0-------------------|----0----0-------------------|
----5b---5b-7------7------7--|----5b---5b-7------7------7--|
--7----7----0--0-0-0--0-0-0--|--7----7----0--0-0-0--0-0-0--|


                                                            
-----------------------------|-----------------------------|
-----------------------------|-----------------------------|
-----------------------------|-----------------------------|
----0----0-------------------|----0----0-------------------|
----5b---5b-7------7------7--|----5b---5b-7------7------7--|
--7----7----0--0-0-0--0-0-0--|--7----7----0--0-0-0--0-0-0--|


                                                              
------------0----------|------------------|------------------|
------------0----------|------------------|------------------|
-----------------------|------------------|------------------|
----0----0-------------|------------------|------------------|
----5b---5b------------|------------------|------------------|
--7----7---------------|------------------|------------------|


solo guitar

                                                                     
------------------|------------------|---------------------12-------|
------------------|------------------|--------------10/-12----15-12-|
------------------|------------------|------------------------------|
------------------|------------------|------------------------------|
------------------|------------------|------------------------------|
------------------|------------------|------------------------------|


                                       
--------------------------------------|
------------------------------3-------|
--15-14-12-14-12-14b------2/4---4h2h0-|
--------------------------------------|
--------------------------------------|
--------------------------------------|


                                                                       
--------------------------------12-------|---15--------------15--17r--|
--------------------------10/12----15b15b|------15b-------17----------|
--4h2h0----------------------------------|----------------------------|
--------2h0---2h0---2~-------------------|----------------------------|
------------2-----2----------------------|----------------------------|
-----------------------------------------|----------------------------|


                                                                            
--------15--------------19b-19-18-|--17------------------------------------|
--17-15----17--------17-----------|-----20-17-20-17------17-19--19b-19b-19b|
----------------------------------|----------------------------------------|
----------------------------------|----------------------------------------|
----------------------------------|----------------------------------------|
----------------------------------|----------------------------------------|


                                                                                
-------19-------------|------------------|------------------|------------------|
---19b----------------|------------------|------------------|------------------|
----------------------|------------------|------------------|------------------|
----------------------|------------------|------------------|------------------|
----------------------|------------------|------------------|------------------|
----------------------|------------------|------------------|------------------|
            
Submit corrections

comments powered by Disqus
↑ Back to top | Led Zeppelin Tabs for Whole Lotta Lo\/E. Lyrics for acoustic guitar and electric guitar. Tablatures and chords are parodies/interpretations of the original songs. You may use it for private study, scholarship, research or language learning purposes only