» » »

White Summer Fast Bit Tabs (ver.1)

Artists:  A B C D E F G H I J K L M N O P Q R S T U V W X Y Z # 

White Summer Fast Bit Tabs (ver.1)

Led Zeppelin
Rating:
0/5 (0 votes)

Hard to play? Try these video lessons and learn fast.
                Here's the fast bit to White Summer. (Remasters)

-|--------0-------0-------0----0---0-0-|------------------------3/4-7-0-------
-|---------------------------------0-0-|------------------------4/5-----------
-|--------0h2p0---0h2p0---0----0h2-2-2-|2p0-----------------------------------
-|-0-2-4--------4-------4---4----------|----2p0---2-----4---------------------
-|-------------------------------------|--------3---3/5---3-2-0---------------
-|-------------------------------------|------------------------------0-0-----
                                                                              

-|-0-7-9-10/12-12-10-7h9-/9--0-0h2h4---|-5-7\5p4-5-7\5p4-5-45/7--0-0----------
-|-------------------------------------|---------------------------0----------
-|---0-0--0--0--0--0---0--0--0-0-------|-0-----0-0-0-0-0-0-0-0-----2----------
-|-0-------------------------------0---|---------------------------0----------
-|-------------------------------------|---------------------------0----------
-|-------------------------------------|---------------------------0----------
                                                                              

-|-----------12^----------0---0-0-0----|-0---0-0-0-0--------------------------
-|-----------12^-----------------------|-------0-0-0--------------------------
-|---------0-12^----------2p0---0-2----|-0h2-2-2-2-2--2p0---------------------
-|-0-0h2h4--------------------4--------|-------0-0-0------2p0---2-----4-------
-|-------------------------------------|-------0-0-0----------3---3/5---------
-|----------------3b5vvv---------------|---------0-0--------------------------
  \this is played quickly/                                                    

-|--------0-----||--------3/4-3/4------|--------------------------------------
-|---2-----0----||--------4/5-4/5------|--------------------------------------
-|----------2---||---------------------|--------------------------------------
-|-----------0--||---------------------|--------------------------------------
-|-3-2--------0-||2-0------------------|--------------------------------------
-|-------------0||----0-0--------------|--------------------------------------
                  \play three times/     then you repeat the whole thing.     

-|---------3/4-3/4----------3/4-3/4----|---3/4--2-----------------------------
-|---------4/5-4/5----------4/5-4/5----|---4/5--0-5-5-5/7-9-9-----------------
-|-------------------------------------|----------0-0-0---7-7-----------------
-|-------------------------------------|--------------------------------------
-|-2-0--------------2-0-------------2-0|--------------------------------------
-|-----0-0--------------0-0------------|-0------------------------------------
   \until you get to this part again, then play this---------/                

-|-0-2-4/5-4-2--0-0-0-0---5-5----------|-/7---/5---/3---2-3-2-3-5-0------0----
-|-0-0-0--------5-2-0-0h2-0-0----------|----0----0----0--0-0-0-----------0----
-|-----0-------------------------------|---------------------------------2----
-|-------------------------------------|-/7---/5---/3---2-3-2-3-5-1p---0-0----
-|-------------------------------------|-----------------------------3---0----
-|-------------------------------------|---------------------------------0----
  \play, then repeat last measure, then play again/
            
Hard to play? Try these video lessons and learn fast. | Correct




comments powered by Disqus
↑ Back to top | Tablatures and chords are parodies/interpretations of the original songs. You may use it for private study, scholarship, research or language learning purposes only