» » »

What Is And What Should Never Be Bass tabs (ver.1)

Artists:  A B C D E F G H I J K L M N O P Q R S T U V W X Y Z # 

What Is And What Should Never Be Bass tabs (ver.1)

Led Zeppelin
Rating:
0/5 (0 votes)

Tabs too difficult? Try these video lessons and learn fast.
                (2)
Led Zeppelin
"What is and What Should Never Be"
Led Zeppelin II
Standard Tuning

Verse
G -------------------------9-----
D ----------------------9---9----
A 9---999----5567-779s11-11--11--
E --79---7-77--------------------

Chorus
G ------------------------------------------------
D ------------------------------------------------
A 0-12-0-0-12-0-010-0-0-10-0-0-9-0-0-9-0-xxx5-----
E ---------------------------------------------5-- x2

G -4---4---2---2---1---1---------------------------------
D -------------------------------------------------------
A 2-2-2-2-2-2-2-2-2-2-2-2xxx7----------------------------
E ---------------------------7---2-2-2-22-22225-5-55-3-0-

End
G ----------------------------
D ----------------------------
A ----79----------79---77-7-7-
E 79----------79--------------
            
Tabs too difficult? Try these video lessons and learn fast.


comments powered by Disqus
↑ Back to top | Tablatures and chords are parodies/interpretations of the original songs. You may use it for private study, scholarship, research or language learning purposes only