» » »

Led Zeppelin, What Is And What Should Tabs (ver.2)

Artists:  A B C D E F G H I J K L M N O P Q R S T U V W X Y Z # 

What Is And What Should Tabs (ver.2)

Led Zeppelin Tabs
Rating:
0/5 (0 votes)
What Is And What Should lessons Tabs too difficult? Try these video lessons and learn fast
                e---------------------------------|----------------2-------------------------
B---------------------------------|----------------3--2----------------------
G---------------------------------|-------------2--2--2----------------------
D----5h7---7-7-7p5---5--5--5------|-4--4---4----2--4--2----------------------
A----0-----0---------0--0----0--0-|-0--0-0----0-0-----0--0-------------------
E---------------------------------|------------------------------------------

e---------------------------------|----------------2-------------------------
B---------------------------------|----------------3--2--2-------------------
G---------------------------------|-------------2--2--2--2-------------------
D----7---7---7p5-----5-------5----|-4-4-4-4---2-2-----2--2-------------------
A----0---0-0---------0--0-0----0--|-0-0-0-0---0-0-----0--0-------------------
E-----------------3---------------|----------------------0-------------------


e-----------------------------|
B-4-4-4-4---------------------|
G-4-4-4-4----4---4---4---4----|
D-4-4-4-4----4---4---4---4----|
A-2-2-2-2--0---0---0---0------|
E-----------------------------|

                                           let ring
e-----------------------0-------------|--------|-----------------
B-----------------------0---4--2------|--2-----|-----------------
G-----4---4---4----4----1---4--3------|--2-----|-----------------
D-----4---4---4----4----2---4--4------|--2-----|-----------------
A-----------------------2---2--4------|--0-----|--2--------------
E---4---4---4----4------0------2------|------3b|--0--------------
            
Submit corrections

comments powered by Disqus
↑ Back to top | Led Zeppelin Tabs for What Is And What Should. Lyrics for acoustic guitar and electric guitar. Tablatures and chords are parodies/interpretations of the original songs. You may use it for private study, scholarship, research or language learning purposes only