» » »

Led Zeppelin, Wanna Whole Lotta Love Tabs (ver.1)

Artists:  A B C D E F G H I J K L M N O P Q R S T U V W X Y Z # 

Wanna Whole Lotta Love Tabs (ver.1)

Led Zeppelin Tabs
Rating:
0/5 (0 votes)
Wanna Whole Lotta Love lessons Tabs too difficult? Try these video lessons and learn fast
                Lines: 38

I'm assuming that the player knows the song, hence I'm not including lyrics.

Notation: s=sixteenth note, e=eighth note

Intro/Verses:

   s e  s e  s s s s s s s s s    s s s s s s s s s s s s s s s s
E|------------------------------|----------------------------------|
B|------------------------------|----------------------------------|
G|------------------------------|----------------------------------|
D|---0----0--2-------2-------2--|-------2-------2-------2-------2--|
A|-2----2-----------------------|----------------------------------|
E|-------------0-0-0---0-0-0----|-0-0-0---0-0-0---0-0-0---0-0-0----|

For the intro, play the whole figure straight through twice.  For the verses,
just play the first half.

The low E's are sort of optional -- if it's tough, just play the high E's

Chorus: "Wanna Whole Lotta Love?"

   s s s s s e (slide)
E|-------------------|
B|-------------------|
G|-------------------|
D|-0-0-0-0-0----9\---| play 4 times
A|-----------7-------|
E|-------------------|


Sorry, but I don't have the guitar solo/interlude/etc. but this should be a
good start.
--
University of Pennsylvania  | phone:  (215)898-2476 (057 Moore) 
Philadelphia, PA  19104     |         (215)222-7967 (Home)
            

comments powered by Disqus
↑ Back to top | Led Zeppelin Tabs for Wanna Whole Lotta Love. Lyrics for acoustic guitar and electric guitar. Tablatures and chords are parodies/interpretations of the original songs. You may use it for private study, scholarship, research or language learning purposes only