>
 >
The Rain Song 2

The Rain Song 2 Guitar Tabs

Led Zeppelin - The Rain Song 2 chords, tabs, tablatures, lyrics

Guitar lessons | Add/correct | Request | Top 50 tabs Artists:  A B C D E F G H I J K L M N O P Q R S T U V W X Y Z 0-9

The Rain Song 2 Guitar Tabs – Led Zeppelin

CD, Sheet music, Poster

Do you like The Rain Song 2? Share with your friends now
TabsTabs v2Tabs v3Tabs v4Tabs v5Tabs v6
Guitar 1 - Acoustic
Guitar 2 - Clean Electric

Guitar 1
D---0-------0--0--0----0-------0--0--0--------------------------------|
C----7------7--7--7-----6------6--6--6-------5-5-3-2---3----3--3--3---|
G-----0-----0--0--0------0-----0--0--0-------4-4-4-4---3----3--3--3---|
C------7----7--7--7-------6----6--6--6-------5-5-5-5---3----3--3--3---|
G-------0---0--0--0--------0---0--0--0---0---0---------0----0--0--0---|
D---------------------------------------------------------------------|
                                                                     
Guitar 2                                                                
D----------------------0----------------------------------------------|
C-----------------------6--------------------5-5-3-2---3--------------|
G------------------------0-------------------4-4-4-4---3--------------|
C-------------------------6------------------5-5-5-5---3--------------|
G--------------------------0---------------------------0--------------|
D---------------------------------------------------------------------|

Guitar 1
D-----------------0---0---0---0---0---0-0-----0---0---0---0---0---0-0--|
C-----------------11--9---12--11--4---9-9-----11--9---12--11--4---9-9--|
G-----2---4-4-----0---0---0---0---0---0-0-----0---0---0---0---0---0-0--|
C-----2---2-2-----11--9---12--11--4---9-9-----11--9---12--11--4---9-9--|
G-0-0-0---0-0-----0---0---0---0---0---8-8-----0---0---0---0---0---8-8--|
D----------------------------------------------------------------------|

Guitar 2
D-----------------0---0---0---0---0---0-0-----0---0---0---0---0---0-0--|
C-----------------11--9---12--11--4---9-9-----11--9---12--11--4---9-9--|
G-----2---4-4-----0---0---0---0---0---0-0-----0---0---0---0---0---0-0--|
C-----2---2-2-----11--9---12--11--4---9-9-----11--9---12--11--4---9-9--|
G-----0---0-0-----0---0---0---0---0---8-8-----0---0---0---0---0---8-8--|
D----------------------------------------------------------------------|

Guitar 1
D--0------------------0-------------------5--5--5-------5--5--5--------|
C--10/9----9---9--9---9---9---9---9-------0--0--0-------0--0--0--------|
G--11/10---10--10-10--10--10--10--10------0--0--0-------0--0--0--------| Repeat 3 
C--12/11---11--11-11--10--10--10--10------5--4--0---0-4-5--4--0--------|    times
G--0-------0---0--0---0---0---0---0------------------------------------|
D----------------------------------------------------------------------|

Guitar 2
D--0--------------------------------------5--5--5-------5--5--5--------|
C--10/9------------------9----------------0--0--0-------0--0--0--------|
G--11/10---------------10-----------------0--0--0-------0--0--0--------| Repeat 3 
C--12/11--------------10------------------5--4--0-------5--4--0--------|    times
G--0-------------------------------------------------------------------|
D----------------------------------------------------------------------|

Guitar 1
D------------------------------------------------------------------------------2-------|
C-2--2--2-----2--2--2----2--2--2-----2--2--2-----2--2--2-----2--2--2-----2--2----2-----|
G-2--4--4-----4--4--4----2--4--4-----4--4--4-----2--4--4-----4--4--4-----2--4------4-0-|
C-2--2--2-----2--2--2----3--3--3-----3--3--3-----4--4--4-----4--4--4-----5--5----------|
G-0-----0-----0-----0----0-----0-----0-----0-----0-----0-----0-----0-----0-------------|
D--------------------------------------------------------------------------------------|
                                                                                           
Guitar 2                                                                                  
D------------------------------------------------------------------------------2-------|
C-2--2--2----------------2--2--2-----------------2--2--2-----------------2--2----2-----|
G-2--4--4--2-4-0-2---0---2--4--4--2-4-0-2---0----2--4--4--2-4-0-2---0----2--4------4-0-|
C-2--2--2----------4--2--3--3--3----------4---2--4--4--4----------4---2--5--5----------|
G-0-----0----------------0-----0-----------------0-----0-----------------0-------------|
D--------------------------------------------------------------------------------------|

Guitar 1
D----5-5-5-4h5p4-------4--2--4----4-----0---2--0h2p0----0--2--0h2p0---------------|
C----4-4-4-------4-----2--2--2----2-----0-----------0---0----------0--------------|
G----4-4-4---------4---2--2--2----2-----0------------0--0-----------0--2-4-4--4-4-|
C--0------------------------------------0-------------0-0--------------2-2-2--2-2-|
G----------------------4-----4----4-----2---------------2--------------0-0-0--0-0-|
D---------------------------------------------------------------------------------|

Guitar 2
D----------4-5-4-------4--2--4--4--2-0--0---2--0h2p0----0--2--0h2p0---------------|
C-------4--------4----------------------0-----------0---0----------0--------------|
G-----4------------4--------------------0------------0--0-----------0--2-4-4------|
C---------------------------------------0-------------0-0--------------2-2-2------|
G---------------------------------------2---------------2--------------0-0-0------|
D---------------------------------------------------------------------------------|

Guitar 1
D---0-------0--0--0----0-------0--0--0--------------------------------|
C----7------7--7--7-----6------6--6--6-------5-5-3-2---3----3--3--3---|
G-----0-----0--0--0------0-----0--0--0-------4-4-4-4---3----3--3--3---|
C------7----7--7--7-------6----6--6--6-------5-5-5-5---3----3--3--3---|
G-------0---0--0--0--------0---0--0--0---0---0---------0----0--0--0---|
D---------------------------------------------------------------------|
                                                                     
Guitar 2                                                                
D---0------------------0----------------------------------------------|
C----7------------------6--------------------5-5-3-2---3--------------|
G-----0------------------0-------------------4-4-4-4---3--------------|
C------7------------------6------------------5-5-5-5---3--------------|
G-------0------------------0---------------------------0--------------|
D---------------------------------------------------------------------|

Guitar 1
D-----------------0---0---0---0---0---0-0-----0---0---0---0---0---0-0--|
C-----------------11--9---12--11--4---9-9-----11--9---12--11--4---9-9--|
G-----2---4-4-----0---0---0---0---0---0-0-----0---0---0---0---0---0-0--|
C-----2---2-2-----11--9---12--11--4---9-9-----11--9---12--11--4---9-9--|
G-0-0-0---0-0-----0---0---0---0---0---8-8-----0---0---0---0---0---8-8--|
D----------------------------------------------------------------------|

Guitar 2
D-----------------0---0---0---0---0---0-0-----0---0---0---0---0---0-0--|
C-----------------11--9---12--11--4---9-9-----11--9---12--11--4---9-9--|
G-----2---4-4-----0---0---0---0---0---0-0-----0---0---0---0---0---0-0--|
C-----2---2-2-----11--9---12--11--4---9-9-----11--9---12--11--4---9-9--|
G-----0---0-0-----0---0---0---0---0---8-8-----0---0---0---0---0---8-8--|
D----------------------------------------------------------------------|

Guitar 1
D--0------------------0-------------------5--5--5-------5--5--5--------|
C--10/9----9---9--9---9---9---9---9-------0--0--0-------0--0--0--------|
G--11/10---10--10-10--10--10--10--10------0--0--0-------0--0--0--------| Repeat 3 
C--12/11---11--11-11--10--10--10--10------5--4--0---0-4-5--4--0--------|    times
G--0-------0---0--0---0---0---0---0------------------------------------|
D----------------------------------------------------------------------|

Guitar 2
D--0--------------------------------------5--5--5-------5--5--5--------|
C--10/9-------9h11p9--9--------9h11p9-----0--0--0-------0--0--0--------|
G--11/10---10---------10----10------------0--0--0-------0--0--0--------| Repeat 3 
C--12/11--------------10------------------5--4--0-------5--4--0--------|    times
G--0-------------------------------------------------------------------|
D----------------------------------------------------------------------|

Guitar 1
D------------------------------------------------------------------------------2-------|
C-2--2--2-----2--2--2----2--2--2-----2--2--2-----2--2--2-----2--2--2-----2--2----2-----|
G-2--4--4-----4--4--4----2--4--4-----4--4--4-----2--4--4-----4--4--4-----2--4------4-0-|
C-2--2--2-----2--2--2----3--3--3-----3--3--3-----4--4--4-----4--4--4-----5--5----------|
G-0-----0-----0-----0----0-----0-----0-----0-----0-----0-----0-----0-----0-------------|
D--------------------------------------------------------------------------------------|
                                                                                           
Guitar 2                                                                                  
D------------------------------------------------------------------------------2-------|
C-2--2--2----------------2--2--2-----------------2--2--2-----------------2--2----2-----|
G-2--4--4--2-4-0-2---0---2--4--4--2-4-0-2---0----2--4--4--2-4-0-2---0----2--4------4-0-|
C-2--2--2----------4--2--3--3--3----------4---2--4--4--4----------4---2--5--5----------|
G-0-----0----------------0-----0-----------------0-----0-----------------0-------------|
D--------------------------------------------------------------------------------------|

Guitar 1
D----5-5-5-4h5p4--------4--2--4----4---5-5-5-4h5p4-------7--7--7----7--|
C----4-4-4-------4------2--2--2----2---4-4-4-------4-----5--5--5----5--|
G----4-4-4---------4----2--2--2----2---4-4-4---------4---5--5--5----5--|
C--0-------------------------------------------------------------------|
G----------------------------------------------------------------------|
D----------------------------------------------------------------------|

Guitar 2
D----------4-5-4-------4--2--4--4--2--------4-5-4--------7-------------|
C-------4--------4------------------------4-------4--------------------|
G-----4------------4--------------------4-----------4------------------|
C----------------------------------------------------------------------|
G----------------------------------------------------------------------|
D----------------------------------------------------------------------|

Guitar 1
D---0-------0--0--0----0-------0--0--0--------------------------------|
C----7------7--7--7-----6------6--6--6-------5-5-3-2---3----3--3--3---|
G-----0-----0--0--0------0-----0--0--0-------4-4-4-4---3----3--3--3---|
C------7----7--7--7-------6----6--6--6-------5-5-5-5---3----3--3--3---|
G-------0---0--0--0--------0---0--0--0---0---0---------0----0--0--0---|
D---------------------------------------------------------------------|
                                                                     
Guitar 2                                                                
D---0------------------0----------------------------------------------|
C----7------------------6--------------------5-5-3-2---3--------------|
G-----0------------------0-------------------4-4-4-4---3--------------|
C------7------------------6------------------5-5-5-5---3--------------|
G-------0------------------0---------------------------0--------------|
D---------------------------------------------------------------------|

Guitar 1
D-----------------0---0---0---0---0---0-0-----0---0---0---0---0---0-0--|
C-----------------11--9---12--11--4---9-9-----11--9---12--11--4---9-9--|
G-----2---4-4-----0---0---0---0---0---0-0-----0---0---0---0---0---0-0--|
C-----2---2-2-----11--9---12--11--4---9-9-----11--9---12--11--4---9-9--|
G-0-0-0---0-0-----0---0---0---0---0---8-8-----0---0---0---0---0---8-8--|
D----------------------------------------------------------------------|

Guitar 2
D-----------------0---0---0---0---0---0-0-----0---0---0---0---0---0-0--|
C-----------------11--9---12--11--4---9-9-----11--9---12--11--4---9-9--|
G-----2---4-4-----0---0---0---0---0---0-0-----0---0---0---0---0---0-0--|
C-----2---2-2-----11--9---12--11--4---9-9-----11--9---12--11--4---9-9--|
G-----0---0-0-----0---0---0---0---0---8-8-----0---0---0---0---0---8-8--|
D----------------------------------------------------------------------|

Guitar 1
D--0------------------0-------------------5--5--5-------5--5--5--------|
C--10/9----9---9--9---9---9---9---9-------0--0--0-------0--0--0--------|
G--11/10---10--10-10--10--10--10--10------0--0--0-------0--0--0--------| Repeat 4 
C--12/11---11--11-11--10--10--10--10------5--4--0---0-4-5--4--0--------|    times
G--0-------0---0--0---0---0---0---0------------------------------------|
D----------------------------------------------------------------------|

Guitar 2
D--0--------------------------------------5--5--5-------5--5--5--------|
C--10/9---------------9-------------------0--0--0-------0--0--0--------|
G--11/10--------------10------------------0--0--0-------0--0--0--------| Repeat 4
C--12/11--------------10------------------5--4--0-------5--4--0--------|    times
G--0-------------------------------------------------------------------|
D----------------------------------------------------------------------|

Guitar 1
D------------------------------------------------------------------------------2-------|
C-2--2--2-----2--2--2----2--2--2-----2--2--2-----2--2--2-----2--2--2-----2--2----2-----|
G-2--4--4-----4--4--4----2--4--4-----4--4--4-----2--4--4-----4--4--4-----2--4------4-0-|
C-2--2--2-----2--2--2----3--3--3-----3--3--3-----4--4--4-----4--4--4-----5--5----------|
G-0-----0-----0-----0----0-----0-----0-----0-----0-----0-----0-----0-----0-------------|
D--------------------------------------------------------------------------------------|
                                                                                           
Guitar 2                                                                                  
D------------------------------------------------------------------------------2-------|
C-2--2--2----------------2--2--2-----------------2--2--2-----------------2--2----2-----|
G-2--4--4--2-4-0-2---0---2--4--4--2-4-0-2---0----2--4--4--2-4-0-2---0----2--4------4-0-|
C-2--2--2----------4--2--3--3--3----------4---2--4--4--4----------4---2--5--5----------|
G-0-----0----------------0-----0-----------------0-----0-----------------0-------------|
D--------------------------------------------------------------------------------------|

Guitar 1
D----5-5-5-4h5p4-------4--2--4----4-----0---2--0h2p0----0--2--0h2p0---------------|
C----4-4-4-------4-----2--2--2----2-----0-----------0---0----------0--------------|
G----4-4-4---------4---2--2--2----2-----0------------0--0-----------0--2-4-4--4-4-|
C--0------------------------------------0-------------0-0--------------2-2-2--2-2-|
G----------------------4-----4----4-----2---------------2--------------0-0-0--0-0-|
D---------------------------------------------------------------------------------|

Guitar 2
D----------4-5-4-------4--2--4--4--2-0--0---2--0h2p0----0--2--0h2p0---------------|
C-------4--------4----------------------0-----------0---0----------0--------------|
G-----4------------4--------------------0------------0--0-----------0--2-4-4------|
C---------------------------------------0-------------0-0--------------2-2-2------|
G---------------------------------------2---------------2--------------0-0-0------|
D---------------------------------------------------------------------------------|

Guitar 1
D-/9--9-9-9-7--7--5-5-5-7----5-5-5-5-4-5--4-4-4-4-4-4--|
C-/7--7-7-7-7--5--5-5-5-5----4-4-4-4-4-4--2-2-2-2-2-2--|
G-/7--7-7-7-7--5--5-5-5-5----4-4-4-4-4-4--2-2-2-2-2-2--|repeat 4
C-/7--7-7-7-7--5--5-5-5-5----4-4-4-4-4-4--2-2-2-2-2-2--|  times
G------------------------------------------------------|
D------------------------------------------------------|

Guitar 2
D-/9--9-9-9-7--7--5-5-5-7----5-5-5-5-4-5---------------|
C-/7--7-7-7-7--5--5-5-5-5----4-4-4-4-4-4---------------|
G-/7--7-7-7-7--5--5-5-5-5----4-4-4-4-4-4-------0-----0-|repeat 4
C-/7--7-7-7-7--5--5-5-5-5----4-4-4-4-4-4---2-4---2-4---|  times
G------------------------------------------------------|
D------------------------------------------------------|

Guitar 1
D--0------------------0-------------------5--5--5-------5--5--5--------|
C--10/9----9---9--9---9---9---9---9-------0--0--0-------0--0--0--------|
G--11/10---10--10-10--10--10--10--10------0--0--0-------0--0--0--------| Repeat 4 
C--12/11---11--11-11--10--10--10--10------5--4--0---0-4-5--4--0--------|    times
G--0-------0---0--0---0---0---0---0------------------------------------|
D----------------------------------------------------------------------|

Guitar 2
D--0--------------------------------------5--5--5-------5--5--5--------|
C--10/9---------------9-------------------0--0--0-------0--0--0--------|
G--11/10--------------10------------------0--0--0-------0--0--0--------| Repeat 4
C--12/11--------------10------------------5--4--0-------5--4--0--------|    times
G--0-------------------------------------------------------------------|
D----------------------------------------------------------------------|

Guitar 1
D------------------------------------------------------------------------------2-------|
C-2--2--2-----2--2--2----2--2--2-----2--2--2-----2--2--2-----2--2--2-----2--2----2-----|
G-2--4--4-----4--4--4----2--4--4-----4--4--4-----2--4--4-----4--4--4-----2--4------4-0-|
C-2--2--2-----2--2--2----3--3--3-----3--3--3-----4--4--4-----4--4--4-----5--5----------|
G-0-----0-----0-----0----0-----0-----0-----0-----0-----0-----0-----0-----0-------------|
D--------------------------------------------------------------------------------------|
                                                                                           
Guitar 2                                                                                  
D------------------------------------------------------------------------------2-------|
C-2--2--2----------------2--2--2-----------------2--2--2-----------------2--2----2-----|
G-2--4--4--2-4-0-2---0---2--4--4--2-4-0-2---0----2--4--4--2-4-0-2---0----2--4------4-0-|
C-2--2--2----------4--2--3--3--3----------4---2--4--4--4----------4---2--5--5----------|
G-0-----0----------------0-----0-----------------0-----0-----------------0-------------|
D--------------------------------------------------------------------------------------|

Guitar 1
D----5-5-5-4h5p4-------4--2--4----4-----0---2--0h2p0----0--2--0h2p0------|
C----4-4-4-------4-----2--2--2----2-----0-----------0---0----------0-----|
G----4-4-4---------4---2--2--2----2-----0------------0--0-----------0----|
C--0------------------------------------0-------------0-0----------------|
G----------------------4-----4----4-----2---------------2----------------|
D------------------------------------------------------------------------|

Guitar 2
D----------4-5-4-------4--2--4--4--2-0--0---2--0h2p0----0--2--0h2p0------|
C-------4--------4----------------------0-----------0---0----------0-----|
G-----4------------4--------------------0------------0--0-----------0----|
C---------------------------------------0-------------0-0----------------|
G---------------------------------------2---------------2----------------|
D------------------------------------------------------------------------|

Both Guitars
D---/9--9---9--7----7--7----5--7-----5--5---5--4-----4--4---4--5---------|
C---/7--7---7----7--5--5--5-5--------4--4---4----4---2--2---2--4---------|
G---/7--7---7-------5--5----5--------4--4---4--------2--2---2--4---------|
C---/7--7---7-------5--5-------------0--0---0------------------0---------|
G---0---0-----------0--0-----------------------------4--4---4------------|
D------------------------------------------------------------------------|

D---7--7---7-8----10--8--10--8--10--12/---------------0-----------|
C---5--5---5-7----8------8------8-------------------5---5---5-----|
G---5--5---5-7----8------8------8-----------------6-------6-------|
C-----------------------------------------------7-----------------|
G---7--7---7-8----10--------------------------0-------------------|
D-----------------------------------------------------------------|

D----------0----------7p5-----5--2p0--------5p3---3----------0-----0---|
C--------5---5---5--------6----------0---------4-4-4--------5-----4----|
G------6-------6------------7----------0--------5---5------0-----0-----|
C----7----------------0----------0-------0--0-------------0------------|
G--0------------------------------------------------------------4------|
D----------------------------------------------------------------------|

D-----0----0----0----0--------0------------|
C----2----2----2----2--------2-------------|
G---0----0----0----0--------2--------------|
C--------------------------2---------------|
G--2----2----2----2-------0----------------|
D------------------------0-----------------|





Comments


Popular Led Zeppelin tabs & chords
Communication Breakdown 4 Bass Tabs
D'yer Maker Bass Tabs
For Your Life Bass Tabs
How Many More Times 3 Bass Tabs
Poor Tom 2 Bass Tabs
Street Corner Girl Chords
As Long As I Have You Live Tabs
Going To California 3 Tabs
Immigrant Song 1 Tabs
Im Gonna Crawl Ukulele


Song lyrics



↑ Back to top | Tablatures and chords are parodies/interpretations of the original songs. You may use it for private study, scholarship, research or language learning purposes only
© 2014 AZChords.com Contact us | Privacy policy | DMCA | Add/correct tabs | Request tabs | Top 50 tabs