» » »

Led Zeppelin, The Ocean Bass tabs (ver.5)

Artists:  A B C D E F G H I J K L M N O P Q R S T U V W X Y Z # 

The Ocean Bass tabs (ver.5)

Led Zeppelin Tabs
Rating:
0/5 (0 votes)
The Ocean lessons Tabs too difficult? Try these video lessons and learn fast
                Wait For intro

Intro
0:08
G[------------------------------------]
D[-7-7-5------------5------7----7-----]x4
A[-------7-3----5-7----5-7----4---5-7-]
E[------------------------------------]

Verse1
0:29
G[-----------------------------------------------]
D[-----------------------------------------------]x4
A[-5-5-5-5-5--3-3-3-3-3--------5-5-5-5-----------]
E[-----------------------5-3-5-------------------]

Chorus1
0:50
G[------------------------------------]
D[-7-7-5------------5------7----7-----]x4
A[-------7-3----5-7----5-7----4---5-7-]
E[------------------------------------]

Verse2
1:11
G[-----------------------------------------------]
D[-----------------------------------------------]x4
A[-5-5-5-5-5--3-3-3-3-3--------5-5-5-5-----------]
E[-----------------------5-3-5-------------------]

Solo
1:32
G[------------------------------------]
D[-7-7-5------------5------7----7-----]x4
A[-------7-3----5-7----5-7----4---5-7-]
E[------------------------------------]

Post-Solo
1:53
G[-------------------------------------]
D[-------------------------------------]x4
A[-5-5-5-5-5--3-3-3-3-3--------5-5-5-5-]
E[-----------------------5-3-5---------]

Break
2:12
G[------------]
D[---7-----7~-]
A[-4---5-7----]
E[------------]

No Bass From 2:14-2:35

Verse3
2:36
G[-----------------------------------------------]
D[-----------------------------------------------]x4
A[-5-5-5-5-5--3-3-3-3-3--------5-5-5-5-----------]
E[-----------------------5-3-5-------------------]

Chorus2
2:57
G[------------------------------------]
D[-7-7-5------------5------7----7-----]x4
A[-------7-3----5-7----5-7----4---5-7-]
E[------------------------------------]

Bridge
Tempo Change
3:17
G[-------------------4-------------------------------]
D[---------------------7-4---------------4-4---4-5-6-]
A[-5-2-------4-2---5-------7---------5-7-----7-------]
E[-----5-2-0-----4-----------0-2-3-4-----------------]

3:29
G[-----------------------------------------------------------------------]
D[-------------------------4---------------4-----------------------------]
A[-5-2-----------------4-5---7---------4-5---7---7---5-5-----------------]
E[-----5-2-2-0-2-3-4-5---------7-0-5-5---------7---5-----7-5-2-0-2-2-3-4-]

3:44
G[-------4-----------------4---------6-4----------------------]
D[---4-7---7-4---------------7-4-4-------6--------------------]
A[-5-----------7-5-4---5-----------7-------7-5-4--------------]
E[-------------------7---5------------------------7-5-0-2-3-4-]

3:55
G[---------------------------------------------------------4-----]
D[-------4---------------4-----------------------------4-7---7-4-]
A[---4-5---7---------4-5---7---7---5-5-2-------------5-----------]
E[-5---------7-0-5-5---------7---5-------5-2-0-2-3-4-------------]

4:09
G[---------------------------------------------------]
D[-------------4-----4-2-----------------------------]
A[-7-5-4-----5---5-7-------2-7-6-5-5-3-2-------------]
E[-------7-5-------------4---------------5-0-2-3-4-5-]

4:18
G[---------------------------------]
D[-------4---------------4---------]
A[---4-5---7---------4-5---7-------]
E[-5---------7-0-5-5---------7-7~--]

Have Fun
            
Submit corrections

comments powered by Disqus
↑ Back to top | Led Zeppelin Bass for The Ocean. Lyrics for acoustic guitar and electric guitar. Tablatures and chords are parodies/interpretations of the original songs. You may use it for private study, scholarship, research or language learning purposes only