» » »

The Immigramt Song Tabs (ver.1)

Artists:  A B C D E F G H I J K L M N O P Q R S T U V W X Y Z # 

The Immigramt Song Tabs (ver.1)

Led Zeppelin
Rating:
0/5 (0 votes)

Hard to play? Try these video lessons and learn fast.
                E Tuning

Main Riff:
[F#m]
----------------------------------|---------------------------------|
----------------------------------|---------------------------------|
----------------------------------|---------------------------------|
----------4---------------4-------|---------4---------------4-------|
----------------------------------|---------------------------------|
--2---2-2---2---2-2---2-2---2---2-|-2---2-2---2---2-2---2-2---2---2-|

Ah,_____________
ah._____________

[A] We [E] come from ...
snow, from the midnite sun ....
(main riff) 
The hammer of the gods  will drive ...
horde,__ singing ...
[E] Vahala, I am ....A]__[F#m]__
[A] on we ...
[B] with ....
[C] our only goal ....
shore

(Main riff)
Ah,____________
ah.____________

[A] We [E] come from the land of ice ....
...

(Main riff)
How soft your fields so green, ....
calmed_ the ...
[E] We are your ...
[A] on we ...
[B] with treshing ...
[C] our only goal will be ....

(main riff)
So now you'd ...
and rebuild ....
for peace and trust__ can ....
losing.


--------------------------2-------|-------------------------2-------|
--------------------------3-------|-------------------------3-------|
--------------------------3-------|-------------------------3-------|   
----------4---------------X-------|---------4---------------X-------|   
--------------------------3-------|-------------------------3-------|
--2---2-2---2---2-2---2-2---2---2-|-2---2-2---2---2-2---2-2---2---2-|


--------------------------2-------|---------------------------------|
--------------------------3-------|---------------------------------|
--------------------------3-------|---------------------------------|
----------4---------------X-------|---------4-----------------------|
--------------------------3-------|---------------------------------|
--2---2-2---2---2-2---2-2---2---2-|-2---2-2---2---2-2---------------|
            
Hard to play? Try these video lessons and learn fast. | Correct




comments powered by Disqus
↑ Back to top | Tablatures and chords are parodies/interpretations of the original songs. You may use it for private study, scholarship, research or language learning purposes only