» » »

Led Zeppelin, Ten Years Gone Tabs (ver.4)

Artists:  A B C D E F G H I J K L M N O P Q R S T U V W X Y Z # 

Ten Years Gone Tabs (ver.4)

Led Zeppelin Tabs
 Rating:
4/5 (4 votes)
Ten Years Gone lessons Tabs too difficult? Try these video lessons and learn fast
1
                
                              "Ten Years Gone"
           as recorded by *Led Zeppelin* from *Physical Graffitti*

          lr  (repeat)            *  * *                 lr
|---------------------|-------------------7--7-7--5--5-5-3-|
|-2-0---0-3-----3-----|---2--2-2--7--7-7--9--9-9--7--7-7-5-|
|-2-2-2---2---2---2---|---2--2-2--7--7-7--8--8-8--6--6-6-4-|
|-2-2-----3-3-------2-|---2--2-2--7--7-7--9--9-9--7--7-7-5-|
|-0-0-----0---------0-|-0-0--0-0--5--5-5--7--7-7--5--5-5-3-|
|---------------------|------------------------------------|
* Bass line maks these chords sound different.

                          . .             . .   (repeat)
|-----------------|-----------------------------------|
|-----------------|-2-----------------------------2---|
|-----------------|-2-4-2-4-4-4-6-2---2-4-2-2-2-4-2---|
|---------0-3-2---|-2-----5-5-5---4---4---3-3-3---2---|
|-----0-3-------0-|-0-----0-0-0---0-0-0---0-0-0---0-0-|
|-0-1-------------|-----------------------------------|

solo chords:
| (Dsus2) | D | G | Em7 |  (not necessarily in this order)

"Do you ever remember..."                      lr   ^
|---------------------------------------------------0-|
|---------------------------------------------------3-|
|---------------------------------------------------2-|
|----------------------------------------------0----0-|
|-5-7-7-9-7-7-5-5-5-5-5--5-5-5--5-5-5--5-5-5-5-0------|
|-3-5-5-7-5-5-3-3-3-3-3--3-3-3--3-3-3--3-3-3-3--------|

| Amaj7 | G | D | Cmaj7 |

 Outro:    b                    (2 gtrs.)
|------------------------------------------------|
|-------------------------------17-15-14-15-14~~-|
|-------14-16-16-14-16-14~~-----18-16-14-16-14~~-|
|-14-16----------------------16------------------|

|------------------------------------------------|
|------------------------------------------------|


KEY:
~           vibrato
lr          let ring
^           upstroke
b           bend
hb          half bend




**END**
            
Submit corrections

comments powered by Disqus
↑ Back to top | Led Zeppelin Tabs for Ten Years Gone. Lyrics for acoustic guitar and electric guitar. 1 Tablatures and chords are parodies/interpretations of the original songs. You may use it for private study, scholarship, research or language learning purposes only