>
 >
Tea For One 2

Tea For One 2 Bass Tabs

Led Zeppelin - Tea For One 2 chords, tabs, tablatures, lyrics

Guitar lessons | Add/correct | Request | Top 50 tabs Artists:  A B C D E F G H I J K L M N O P Q R S T U V W X Y Z 0-9

Tea For One 2 Bass Tabs – Led Zeppelin

CD, Sheet music, Poster

Do you like Tea For One 2? Share with your friends now
Bass TabsBass Tabs v2Drum TabsTabsTabs v2
4/4 time
G|----------------|----------------|
D|----------------|----------------|
A|----------------|----------------|
E|----------------|----------------|

G|----------------|----------------|----------------|----------------|
D|--03----03------|----03----03----|------03----03--|--------03----03|
A|01----01----010-|--01----01----01|0---01----01----|010---01----01--|
E|---------------3|13--------------|-313------------|---313----------|

                   7/8 time
G|----------------|--------------|
D|----------03----|03----------0-|
A|--010---01----01|----010---01--|
E|-----313--------|-------313----|

  12/8 time
G|------------------------|------------------------|
D|------------------------|------------------------|
A|------------------------|------------1-----------|
E|3-----------3---------3-|3-----------------------|

G|------------------------|------------------------|
D|------------------------|------------------------|
A|3-----------3-----------|3-----------3-----3-3---|
E|----------3-------------|----------------------3-|

G|------------------------|------------------------|
D|------------3-----------|3-----------3-----------|
A|----------3-------------|----------3-------------|
E|1-----------------------|------------------------|

G|------------------------|------------------------|
D|------------------------|------------------------|
A|3-----------3-----------|3-----------3-----------|
E|----------3-------------|----------3-------------|

G|------------------------|------------------------|
D|------------------------|------------------------|
A|----------5-------5-----|------------1---------2-|
E|1---3-------3-------3-2-|1-----------------------|

G|------------------------|------------------------|
D|------------------------|------------------------|
A|3-----------3-----------|3-----3---------------1-|
E|----------------------3-|------------3-------3---|

G|------------------------|------------------------|
D|------------------------|------------------------|
A|3-----3-----3-----0-----|3---3-------3-----------|
E|------------------------|------------------------|
  How come twenty-four.....

G|------------------------|------------------------|
D|------------------------|------------------------|
A|3---3-------3-----------|3---3-------3-----------|
E|------------------------|----------------------3-|

G|------------------------|------------------------|
D|----3-------------------|------------------------|
A|----------------3-35----|3---3-------------5-----|
E|1-----------1-----------|------------1-----------|

G|------------------------|------------------------|
D|------------------------|------------------------|
A|3---3-------------5-----|3---3-------3-----------|
E|------------------------|------------------------|

G|------------------------|------------------------|
D|------------------------|------------------------|
A|------------------------|--------3-2-1---------1-|
E|1---3-----------------3-|1-----------------------|

G|------------------------|------------------------|
D|------------------------|------------------------|
A|3-----------3-----------|3-----------3-----------|
E|----------------------3-|------------------3-----|

G|------------------------|--------------3-5-------|
D|------------------------|------------------3-5-1-|
A|1---3-------------------|1---3-------------------|
E|------------------------|------------------------|
  Sitting looking at the clock.....

G|------------------------|--------------3-5-------|
D|------------------------|------------------3-5-1-|
A|1---3-------------------|1---3-------------------|
E|------------------------|------------------------|

G|------------------------|--------------3-5-------|
D|1---3-------------------|1---3-------------3-5-1-|
A|------------------------|------------------------|
E|------------------------|------------------------|

G|------------------------|--------------3-5-------|
D|------------------------|------------------3-5-1-|
A|1---3-------------------|1---3-------------------|
E|------------------------|------------------------|

G|------------------------|------------------------|
D|------------------5-----|------------------------|
A|------------------------|-----------1----------2-|
E|1---3---------------3-2-|1--------1--------------|

G|------------------------|------------------------|
D|------------------------|------------------------|
A|3-----------3---------1-|3-----3-------------1-2-|
E|----------3---------3---|------------3-----3-----|

G|------------------------|------------------------|
D|------------------------|------------------------|
A|3-----3-----3-----3-----|------------------------|
E|------------------------|1-----------------------|

G|------------------------|------------------------|
D|------------------------|------------------------|
A|3-----3-----3-----3-----|3-----------------------|
E|------------------------|------------------------|

G|------------------------|------------------------|
D|------------------------|3---3-------------------|
A|------------------5-----|------------------------|
E|1-----------------------|------------1-----35----|

G|------------------------|------------------------|
D|------------------------|------------------------|
A|3---3-------------35----|3---3-------------3---3-|
E|------------------------|------------------------|
  (Guitar Solo)

G|------------------------|------------------------|
D|------------5-----------|------------------------|
A|------------------------|------------1-----------|
E|1---3-------------3-----|1-----1-----------------|

G|------------------------|------------------------|
D|------------------------|------------------------|
A|3-----------3-----------|3---------------------1-|
E|----------3-------3-----|------------3-------3---|

G|------------------------|------------------------|
D|------------------------|------------------------|
A|3---3-------------35----|3---3-------------35----|
E|------------------------|------------------------|

G|------------------------|------------------------|
D|------------------------|------------------------|
A|3---3-------3-----35----|3---3-------3-----35----|
E|----------3-------------|----------3-------------|

G|------------------------|------------------------|
D|------------3-----35----|3---3-------3-----35----|
A|----------3-------------|----------3-------------|
E|1---1-------------------|------------------------|

G|------------------------|--------------------5---|
D|------------------------|------------------------|
A|3---3-------3-----35----|3---3-------3-----3-----|
E|----------3-------------|----------3-----------5-|

G|------------------------|------------------------|
D|------------5-----------|------3-----------------|
A|----------5-------------|-----------31-----------|
E|1---3-------------3---2-|1---1-------------------|

G|------------------------|------------------------|
D|------------------5-----|------------------------|
A|3-----3-----3-----------|3-----------------------|
E|----------3-----------3-|------------3-----3---3-|

G|------------------------|--------------3-5-------|
D|------------------------|------------------3-5-1-|
A|1---3-------------------|1---3-------------------|
E|------------------------|------------------------|
  To sing a song for you.....

G|------------------------|--------------3-5-------|
D|------------------------|------------------3-5-1-|
A|1---3-------------------|1---3-------------------|
E|------------------------|------------------------|

G|------------------------|--------------3-5-------|
D|1---3-------------------|1---3-------------3-5-1-|
A|------------------------|------------------------|
E|------------------------|------------------------|

G|------------------------|--------------3-5-------|
D|------------------------|------------------3-5-1-|
A|1---3-------------------|1---3-------------------|
E|------------------------|------------------------|

G|------------------------|------------------------|
D|------------5-----------|------------------------|
A|------------------------|--------------1-----1-2-|
E|1---3-------------3-----|1-----------------------|

G|------------------------|------------------------|
D|--------------------5---|------------------------|
A|3-----------3-----------|3---------3-----------1-|
E|----------3-----------3-|------------3-----3-----|

G|------------------------|------------------------|
D|------------------------|------------------------|
A|3-----3-----------35--5-|3---3-------------------|
E|------------------------|------------------------|

G|------------------------|--------------3-5-------|
D|------------------------|------------------3-5-1-|
A|3---3-------------35----|3---3-------------------|
E|------------------------|------------------------|

G|------------------------|--------------3-5-------|
D|3---3-------------35----|------------------3-5-1-|
A|----------------------3-|------------------------|
E|------------------------|1---1-------------------|

G|------------------------|--------------3-5-------|
D|------------------------|------------------3-5-1-|
A|3---3-------------35----|3---3-------------------|
E|------------------------|------------------------|

G|------------------------|------------------------|
D|------------5-----------|------------------------|
A|-----------------5------|--------3-2-1---------2-|
E|1---3-------------3----2|1-----------------------|

G|------------------------|------------------------|
D|------------------------|------------------------|
A|3-------3---3-----3-3---|3-----------3-----3-1---|
E|----------3-----------3-|----------3-----------1-|

G|------------------------|------------------------|
D|------------5-------5---|------------------------|
A|----------5-------------|-----------01-------1-2-|
E|1---3-------------3---2-|1-----1-----------------|

G|--------------------3---|------------------------|
D|----------------------5-|------------------------|
A|3-----3-----3-----------|3-------3---3----03-----|
E|----------3-------------|----------3---------1-3-|

G|------------------------|------------------------|
D|------------5-----------|------------------------|
A|-----------5-----5--5---|----------321-----1---1-|
E|1---3-------------3---2-|1-----1-----------------|

G|------------------------|------------------------|
D|------------------------|------------------------|
A|3-----3-----5---3-----3-|5---3-5----3------------|
E|------------------------|------------------------|

G|------------------------|
D|------------------------|
A|------------------------|
E|------------------------|





Comments


Popular Led Zeppelin tabs & chords
In The Light Bass Tabs
Kashmir Bass Tabs
Kashmir 2 Bass Tabs
Hey Hey What Can I Do 4 Chords
Misty Mountain Hop Drum Tabs
Since I've Been Loving You 1 Tabs
Stairway To Heaven 4 Tabs
Ten Years Gone Intro Tabs
The Crunge 1 Tabs
The Song Remains The Same 1 Tabs


Song lyrics



↑ Back to top | Tablatures and chords are parodies/interpretations of the original songs. You may use it for private study, scholarship, research or language learning purposes only
© 2014 AZChords.com Contact us | Privacy policy | DMCA | Add/correct tabs | Request tabs | Top 50 tabs