» » »

Tangerine Tabs (ver.5)

Artists:  A B C D E F G H I J K L M N O P Q R S T U V W X Y Z # 

Tangerine Tabs (ver.5)

Led Zeppelin
Rating:
0/5 (0 votes)

Hard to play? Try these video lessons and learn fast.
                This isn't a hard song at all, i made it so you can do the solo w/o having a cut-away 
listen to the song for rhythm, if you cant fiugre this one out, your hopeless :D

Intro, strum
e------------------------------5p6-5p6-5p6-5p6--|
B--1-1-1-1-1-1-1-1--1-1-1-1---------------------|
G--2-2-2-2-2-2-2-2------------------------------|
D--2-2-2-2-2-2-2-2--2-2-2-2---------------------|
A-----------------------------------------------|
E-------------------3-3-3-3---------------------|

First Verse
e-----------3-3---2-2---2---x2  -0---0----------------------------|
B--1--3--1--3-3---3-3---3---then-1---1------1--1------------------|
G--2--2--2--------2-2---2---   --0---0-----0--0-------------------|
D--2--2--2------0-----0-----   --2---2----2--0--------------------|
A-----------2-2-------------   --3---3---3--2---------------------|
E-----------3-3-------------   -----------------------------------|

  CHORUS: listen to song for rhythm, this is the chord progression
 strum...                       C      D     G  D      C     x6
e-----3---2--2--3--2--0--2--  --------2-2-2--3--2-2-2-------------|
B--1--3---3--3--3--3--3--3--  -1-1-1--3-3-3--3--3-3-3--1-1-1------|
G--2------2--2--2--2--2--2--  --------2-2-2-----2-2-2-------------|
D--2------------------------  -2-2-2-------------------2-2-2------|
A-----2---------------------  -3-3-3---------2---------3-3-3------|
E-----3---------------------  ---------------3--------------------|

Then,  G    D
e-3-3-3--2-2-2--------|
B-3-3-3--3-3-3--------|
G--------2-2-2--------|
D---------------------|
A-2-2-2---------------|
E-3-3-3---------------|

Solo, played slowy-let the nots ring.
e-------3-5-3--------3---3--------3-----8-8-12-12--10--10--10--12--13--13--|b
B-3~~~6-------6-5-6----5---5-5-6----5--------------------------------------|
G--------------------------------------------------------------------------|
D--------------------------------------------------------------------------|
A--------------------------------------------------------------------------|
E--------------------------------------------------------------------------|

Repeat Chorus
Repeat first verse
            
Hard to play? Try these video lessons and learn fast. | Correct




comments powered by Disqus
↑ Back to top | Tablatures and chords are parodies/interpretations of the original songs. You may use it for private study, scholarship, research or language learning purposes only