» » »

Led Zeppelin, Swan Song Tabs (ver.1)

Artists:  A B C D E F G H I J K L M N O P Q R S T U V W X Y Z # 

Swan Song Tabs (ver.1)

Led Zeppelin Tabs
Rating:
0/5 (0 votes)
Swan Song lessons Tabs too difficult? Try these video lessons and learn fast
                -------------------------------------------------------------------------------
-------------------------------------------------------------------------------

Physical Graffiti Outtake
Tuning: DADGAD (Modal D Tuning)

I know its not 100% correct so please post improvements. After
searching online, I hadn't found a decent tab for this song so I
thought I would try this.  It's pretty easy if played this way,
though there are certainly a few variations of the chords on the
recording.  Listen for timing and strumming pattern as I've just
approximated.

0:00 - 7x

D|----------------------------------------------------------------|
A|----------------------------------------------------------------|
G|-6---6---6-6-6-6-6---4-4-4-4-4---4-4--4-4-----------------------|
D|-7---7---7-7-9-7-7---0-0-0-0-0---0-0--0-0-----------------------|
A|-0---0---0-0-0-0-0---5-5-5-5-5---5-5--5-5-----------------------|
D|-7---7---7-7-7-7-7---5-5-5-5-5---5-5--5-5-----------------------|


D|--------------------------------------0---0-0-0-0---------------|
A|--------------------------------------0---0-0-0-0---------------|
G|-4-4-4-4-4---4-4--4-------------------0---0-0-0-0---------------|
D|-0-0-0-0-0---0-0--0--------------0------------------------------|
A|-5-5-5-5-5---5-5--5--------------0------------------------------|
D|-5-5-5-5-5---5-5--5----3-5-3-5p3-0------------------------------|

1:26

D|-4-4-4-4-4------9--9--9--9--------------------------------------|
A|-5-5-5-5-5------10-10-10-10-------------------------------------|
G|-4-4-4-4-4------9--9--9--9--------------------------------------|
D|----------------------------------------------------------------|
A|----------------------------------------------------------------|
D|----------------------------------------------------------------|

1:36

D|-3-3-3-3-3---3-3-3-3-3---------3-3-3-3-3---3-3-3-3-3------------|
A|-5-5-5-5-5---5-5-5-5-5---------5-5-5-5-5---5-5-5-5-5------------|
G|-4-4-4-4-4---4-4-4-4-4---------4-4-4-4-4---4-4-4-4-4------------|
D|----------------------------------------------------------------|
A|----------------------------------------------------------------|
D|----------------------------------------------------------------|

D|-3-3-3-3-3---3-3-3-3-3---------3-3-3-3-3---3-3-3-3-3------------|
A|-5-5-5-5-5---5-5-5-5-5---------5-5-5-5-5---5-5-5-5-5------------|
G|-4-4-4-4-4---4-4-4-4-4---------4-4-4-4-4---4-4-4-4-4------------|
D|----------------------------------------------------------------|
A|----------------------------------------------------------------|
D|------------------------------------------------------3b-0------|

1:44 - 2x

D|-2-2-2-2-2---4-4-4-4-4-4--------2-2-2-2-2---4-4-4-4-4-4---------|
A|-3-3-3-3-3---5-5-5-5-5-5--------3-3-3-3-3---5-5-5-5-5-5---------|
G|-2-2-2-2-2---4-4-4-4-4-4--------2-2-2-2-2---4-4-4-4-4-4---------|
D|----------------------------------------------------------------|
A|----------------------------------------------------------------|
D|----------------------------------------------------------------|

D|-9--9--9--9-----11-11-11-11-----9--9--9--9-----11-11-11-11------|
A|-10-10-10-10----12-12-12-12-----10-10-10-10----12-12-12-12------|
G|-9--9--9--9-----11-11-11-11-----9--9--9--9-----11-11-11-11------|
D|----------------------------------------------------------------|
A|----------------------------------------------------------------|
D|----------------------------------------------------------------|

D|----------------------------------------------------------------|
A|----------------------------------------------------------------|
G|-5-5-5-5-5---4-4-4-4-4---------5-5-5-5-5---4-4-4-4-4------------|
D|-0-0-0-0-0---0-0-0-0-0---------0-0-0-0-0---0-0-0-0-0------------|
A|-5-5-5-5-5---5-5-5-5-5---------5-5-5-5-5---5-5-5-5-5------------|
D|-5-5-5-5-5---5-5-5-5-5---------5-5-5-5-5---5-5-5-5-5------------|

D|-3-3-3-3-3---3-3-3-3-3---------3-3-3-3-3---3-3-3-3-3------------|
A|-5-5-5-5-5---5-5-5-5-5---------5-5-5-5-5---5-5-5-5-5------------|
G|-4-4-4-4-4---4-4-4-4-4---------4-4-4-4-4---4-4-4-4-4------------|
D|----------------------------------------------------------------|
A|----------------------------------------------------------------|
D|----------------------------------------------------------------|

D|-3-3-3-3-3---3-3-3-3-3---------3-3-3-3-3---3-3-3-3-3------------|
A|-5-5-5-5-5---5-5-5-5-5---------5-5-5-5-5---5-5-5-5-5------------|
G|-4-4-4-4-4---4-4-4-4-4---------4-4-4-4-4---4-4-4-4-4------------|
D|----------------------------------------------------------------|
A|----------------------------------------------------------------|
D|------------------------------------------------------3b-0------|

2:42 - 16x

D|----------------------------------------------------------------|
A|----------------------------------------------------------------|
G|-5/7--7-7-7-----------------------------------------------------|
D|-5/7--7-7-7-----------------------------------------------------|
A|-3/5--5-5-5---3p0-0-3p0-----------------------------------------|
D|------------------------3-0-------------------------------------|

3:29

D|-0--------------------------------------------------------------|
A|-0--------------------------------------------------------------|
G|-0--------------------------------------------------------------|
D|-0--------------------------------------------------------------|
A|-0-----let ring-------------------------------------------------|
D|----------------------------------------------------------------|


| /  slide up
| \  slide down
| h  hammer-on
| p  pull-off
| ~  vibrato
| +  harmonic
| x  Mute note
===============================================================================
            

comments powered by Disqus
↑ Back to top | Led Zeppelin Tabs for Swan Song. Lyrics for acoustic guitar and electric guitar. Tablatures and chords are parodies/interpretations of the original songs. You may use it for private study, scholarship, research or language learning purposes only