>
 >
Stairway To Heavin

Stairway To Heavin Guitar Tabs

Led Zeppelin - Stairway To Heavin chords, tabs, tablatures, lyrics

Guitar lessons | Add/correct | Request | Top 50 tabs Artists:  A B C D E F G H I J K L M N O P Q R S T U V W X Y Z 0-9

Stairway To Heavin Guitar Tabs – Led Zeppelin

CD, Sheet music, Poster

Do you like Stairway To Heavin? Share with your friends now
Tabs
PROPS GO TO: Rhett Blackshear

HEY  its really easy  just finger pick it and dont take your eyes off the lines youll see what i mean
   / = slide up
   b = bend string
   x = mute last note that was shown that line
I don't recommend using a pick for this part. Use your fingers and pluck the
strings
e|--------5-7-----7-8-----8-2-----2-0-------0------------------|
B|------5-----5-------5-------3-------1---1---1----------------|
G|----5---------5-------5-------2-------2-------2-0-2-2--------|
D|--7-------6-------5-------4---------------2------------------|
A|------------------------------------------------2-0-0--0/8-7-|
E|-------------------------------------------------------------|

e|--------5-7-----7-8-----8-2-----2-0-------0------------------|
B|------5-----5-------5-------3-------1---1---1----------------|
G|----5---------5-------5-------2-------2-------2-0-2-2--------|
D|--7-------6-------5-------4---------------2------------------|
A|------------------------------------------------2-0-0--------|
E|-------------------------------------------------------------|

e|------------0-2-----2-0-----0-------------------3-----3-3-2-2-|
B|----------------3-------1-----0-1-------------1---0-------3-3-|
G|----------0-------2-------2-------2-------0---------0---------|
D|--------2-----------------------------------2-----------0-0-0-|
A|--0-2-3-----------------------------0-2-3---------------------|
E|------------------------------------------------3-------------|

e|------------0-2-----2-0-----0-------------------------2-0-0 0-|
B|----------------3-------1-----0-1-------------1-----3---1-1-1-|
G|----------0-------2-------2-------2---------0-----2-----2-2-2-|
D|--------2---------------------------------2-----0-------3-3-3-|
A|--0-2-3-----------------------------0-2-3--------------(strum)|
E|--------------------------------------------------------------|

e|--------5-7-----7-8-----8-2-----2-0-------0------------------|
B|------5-----5-------5-------3-------1---1---1---0-1-1--------|
G|----5---------5-------5-------2-------2-------2-0-2-2--------|
D|--7-------6-------5-------4---------------2------------------|
A|------------------------------------------------2-0-0--------|
E|-------------------------------------------------------------|


e|--------5-7-----7-8-----8-2-----2-0-------0------------------|
B|------5-----5-------5-------3-------1---1---1---0-1-1--------|
G|----5---------5-------5-------2-------2-------2-0-2-2--------|
D|--7-------6-------5-------4---------------2------------------|
A|------------------------------------------------2-0-0--------|
E|-------------------------------------------------------------|

e|------------0-2-----2-0-----0-------------------3-----3-3-2-2-|
B|----------------3-------1-----0-1-------------1---0-------3-3-|
G|----------0-------2-------2-------2-------0---------0---------|
D|--------2-----------------------------------2-----------0-0-0-|
A|--0-2-3-----------------------------0-2-3---------------------|
E|------------------------------------------------3-------------|

e|------------0-2-----2-0-----0-------------------------2-0-0 0-|
B|----------------3-------1-----0-1-------------1-----3---1-1-1-|
G|----------0-------2-------2-------2---------0-----2-----2-2-2-|
D|--------2---------------------------------2-----0-------3-3-3-|
A|--0-2-3-----------------------------0-2-3--------------(strum)|
E|--------------------------------------------------------------|

e|--------5-7-----7-8-----8-2-----2-0-------0------------------|
B|------5-----5-------5-------3-------1---1---1---0-1-1--------|
G|----5---------5-------5-------2-------2-------2-0-2-2--------|
D|--7-------6-------5-------4---------------2------------------|
A|------------------------------------------------2-0-0--0/8-7-|
E|-------------------------------------------------------------|

e|--------5-7-----7-------------8-------------2-------------0-------
B|------5-----5-----5---------5---5---------3---3---------1---1-----
G|----5---------5-----5-----5-------5-----2-------2-----2-------2---
D|--7-------6-----------6-5-----------5-4-----------4-3-----------3-
A|------------------------------------------------------------------
E|------------------------------------------------------------------

e|------0-------------|
B|----1---1-----0-1-1-|
G|--2-------2---0-2-2-|
D|------------3-------|
A|--------------2-0-0-|
E|--------------------|

*****
now use a pick and strum up and down
e|--3--3-3-3-3--0--0--2--2-2-2-2-2--|
B|--1--1-1-1-1--1--3--3--3-3-3-3-3--|
G|--2--2-2-2-2--2--2--2--2-2-2-2-2--|
D|--2--2-2-2-2--2--0--0--0-0-0-0-0--|
A|----------------------------------|
E|----------------------------------|

e|--3--3-3-3-3--0--7--5--3--5--5-5-5-5-5--|
B|--1--1-1-1-1--1--8--7--5--7--7-7-7-7-7--|
G|--2--2-2-2-2--2--9--7--5--7--7-7-7-7-7--|
D|--2--2-2-2-2--2-------------------------|
A|----------------------------------------|
E|----------------------------------------|

e|--3--3-3-3-3--0--0--2--2-2-2-2-2--|
B|--1--1-1-1-1--1--0--3--3-3-3-3-3--|
G|--2--2-2-2-2--0--0--2--2-2-2-2-2--|
D|--2--2-2-2-2--2--0--0--0-0-0-0-0--|
A|----------------------------------|
E|----------------------------------|

e|--3--3-3-3-3--0--7--5--3--5--|
B|--1--1-1-1-1--1--8--7--5--7--|
G|--2--2-2-2-2--2--9--7--5--7--|
D|--2--2-2-2-2--2--------------|
A|-----------------------------|
E|-----------------------------|
**

*****
e|------------------------------------------------------1-0---|
B|------------1-------3-0h1---------1-----------1-------1-1---|
G|----------0-------0-------2-----2-----------0-------0-2-2---|
D|--------2-------0-------------2-----------2-------0---3-2---|
A|--0-2-3-------2-------------0-------0-2-3-------2-----3-0---|
E|------------------------------------------------------1-----|

e|------------------------------------------------------1-0---|
B|------------1-------3-0h1---------1-----------1-------1-1---|
G|----------0-------0-------2-----2-----------0-------0-2-2---|
D|--------2-------0-------------2-----------2-------0---3-2---|
A|--0-2-3-------2-------------0-------0-2-3-------2-----3-0---|
E|------------------------------------------------------1-----|

e|----------------------|
B|------------1-------3-|
G|----------0-------0---|
D|--------2-------0-----|
A|--0-2-3-------2-------|
E|----------------------|
**

*****
e|--3--3-3-3-3--0--0--2--2-2-2-2-2--|
B|--1--1-1-1-1--1--3--3--3-3-3-3-3--|
G|--2--2-2-2-2--2--2--2--2-2-2-2-2--|
D|--2--2-2-2-2--2--0--0--0-0-0-0-0--|
A|----------------------------------|
E|----------------------------------|

e|--3--3-3-3-3--0--7--5--3--5--5-5-5-5-5--|
B|--1--1-1-1-1--1--8--7--5--7--7-7-7-7-7--|
G|--2--2-2-2-2--2--9--7--5--7--7-7-7-7-7--|
D|--2--2-2-2-2--2-------------------------|
A|----------------------------------------|
E|----------------------------------------|

e|--3--3-3-3-3--0--0--2--2-2-2-2-2--|
B|--1--1-1-1-1--1--0--3--3-3-3-3-3--|
G|--2--2-2-2-2--0--0--2--2-2-2-2-2--|
D|--2--2-2-2-2--2--0--0--0-0-0-0-0--|
A|----------------------------------|
E|----------------------------------|

e|--3--3-3-3-3--0--7--5--3--5--|
B|--1--1-1-1-1--1--8--7--5--7--|
G|--2--2-2-2-2--2--9--7--5--7--|
D|--2--2-2-2-2--2--------------|
A|-----------------------------|
E|-----------------------------|
**

*****
e|------------------------------------------------------1-0---|
B|------------1-------3-0h1---------1-----------1-------1-1---|
G|----------0-------0-------2-----2-----------0-------0-2-2---|
D|--------2-------0-------------2-----------2-------0---3-2---|
A|--0-2-3-------2-------------0-------0-2-3-------2-----3-0---|
E|------------------------------------------------------1-----|

e|------------------------------------------------------1-0---|
B|------------1-------3-0h1---------1-----------1-------1-1---|
G|----------0-------0-------2-----2-----------0-------0-2-2---|
D|--------2-------0-------------2-----------2-------0---3-2---|
A|--0-2-3-------2-------------0-------0-2-3-------2-----3-0---|
E|------------------------------------------------------1-----|

e|----------------------|
B|------------1-------3-|
G|----------0-------0---|
D|--------2-------0-----|
A|--0-2-3-------2-------|
E|----------------------|
**

*****
e|--3--3-3-3-3--0--0--2--2-2-2-2-2--|
B|--1--1-1-1-1--1--3--3--3-3-3-3-3--|
G|--2--2-2-2-2--2--2--2--2-2-2-2-2--|
D|--2--2-2-2-2--2--0--0--0-0-0-0-0--|
A|----------------------------------|
E|----------------------------------|

e|--3--3-3-3-3--0--7--5--3--5--5-5-5-5-5--|
B|--1--1-1-1-1--1--8--7--5--7--7-7-7-7-7--|
G|--2--2-2-2-2--2--9--7--5--7--7-7-7-7-7--|
D|--2--2-2-2-2--2-------------------------|
A|----------------------------------------|
E|----------------------------------------|

e|--3--3-3-3-3--0--0--2--2-2-2-2-2--|
B|--1--1-1-1-1--1--0--3--3-3-3-3-3--|
G|--2--2-2-2-2--0--0--2--2-2-2-2-2--|
D|--2--2-2-2-2--2--0--0--0-0-0-0-0--|
A|----------------------------------|
E|----------------------------------|

e|--3--3-3-3-3--0--7--5--3--5--|
B|--1--1-1-1-1--1--8--7--5--7--|
G|--2--2-2-2-2--2--9--7--5--7--|
D|--2--2-2-2-2--2--------------|
A|-----------------------------|
E|-----------------------------|
**

*****
e|------------------------------------------------------1-0---|
B|------------1-------3-0h1---------1-----------1-------1-1---|
G|----------0-------0-------2-----2-----------0-------0-2-2---|
D|--------2-------0-------------2-----------2-------0---3-2---|
A|--0-2-3-------2-------------0-------0-2-3-------2-----3-0---|
E|------------------------------------------------------1-----|

e|------------------------------------------------------1-0---|
B|------------1-------3-0h1---------1-----------1-------1-1---|
G|----------0-------0-------2-----2-----------0-------0-2-2---|
D|--------2-------0-------------2-----------2-------0---3-2---|
A|--0-2-3-------2-------------0-------0-2-3-------2-----3-0---|
E|------------------------------------------------------1-----|

e|----------------------|
B|------------1-------3-|
G|----------0-------0---|
D|--------2-------0-----|
A|--0-2-3-------2-------|
E|----------------------|
**

*****
e|--3--3-3-3-3--0--0--2--2-2-2-2-2--|
B|--1--1-1-1-1--1--3--3--3-3-3-3-3--|
G|--2--2-2-2-2--2--2--2--2-2-2-2-2--|
D|--2--2-2-2-2--2--0--0--0-0-0-0-0--|
A|----------------------------------|
E|----------------------------------|

e|--3--3-3-3-3--0--7--5--3--5--5-5-5-5-5--|
B|--1--1-1-1-1--1--8--7--5--7--7-7-7-7-7--|
G|--2--2-2-2-2--2--9--7--5--7--7-7-7-7-7--|
D|--2--2-2-2-2--2-------------------------|
A|----------------------------------------|
E|----------------------------------------|

e|--3--3-3-3-3--0--0--2--2-2-2-2-2--|
B|--1--1-1-1-1--1--0--3--3-3-3-3-3--|
G|--2--2-2-2-2--0--0--2--2-2-2-2-2--|
D|--2--2-2-2-2--2--0--0--0-0-0-0-0--|
A|----------------------------------|
E|----------------------------------|

e|--3--3-3-3-3--0--7--5--3--5--|
B|--1--1-1-1-1--1--8--7--5--7--|
G|--2--2-2-2-2--2--9--7--5--7--|
D|--2--2-2-2-2--2--------------|
A|-----------------------------|
E|-----------------------------|
**

*****
e|------------------------------------------------------1-0---|
B|------------1-------3-0h1---------1-----------1-------1-1---|
G|----------0-------0-------2-----2-----------0-------0-2-2---|
D|--------2-------0-------------2-----------2-------0---3-2---|
A|--0-2-3-------2-------------0-------0-2-3-------2-----3-0---|
E|------------------------------------------------------1-----|

e|------------------------------------------------------1-0---|
B|------------1-------3-0h1---------1-----------1-------1-1---|
G|----------0-------0-------2-----2-----------0-------0-2-2---|
D|--------2-------0-------------2-----------2-------0---3-2---|
A|--0-2-3-------2-------------0-------0-2-3-------2-----3-0---|
E|------------------------------------------------------1-----|

e|----------------------2-|
B|------------1-------?-3-|
G|----------0-------?---2-|
D|--------2-------?-----0-|
A|--0-2-3-------?---------|
E|------------------------|
**

*****
e|--0-2-3--0-2-3--0-2-3-3-2-0-0-0-2-2-0-0-0-2-2-0|
B|--3-3-3--3-3-3--3-3-3-3-3-3-3-3-3-3-3-3-3-3-3-3|
G|--2-2-2--2-2-2--2-2-2-2-2-0-0-2-2-2-0-0-2-2-2-2|
D|--0-0-0--0-0-0--0-0-0-0-0-2-2-0-0-0-2-2-0-0-0-0|
A|--------------------------3-3-------3-3--------|
E|-----------------------------------------------|

e|--0-2-3--0-2-3--0-2-3-3-2-0-0-0-2-2-0-0-0-2-2-0|
B|--3-3-3--3-3-3--3-3-3-3-3-3-3-3-3-3-3-3-3-3-3-3|
G|--2-2-2--2-2-2--2-2-2-2-2-0-0-2-2-2-0-0-2-2-2-2|
D|--0-0-0--0-0-0--0-0-0-0-0-2-2-0-0-0-2-2-0-0-0-0|
A|--------------------------3-3-------3-3--------|
E|-----------------------------------------------|
**

(this looks ok, but I don't know 'cause I dont play the solo)
Solo: (put some distortion on)
If you want. you can have someone else keep playing:
AA xxxx GG xxxx FxFxFxFFG (power chords) over and over in the backround
e|-----5------------------------8-8-10-8----8----8-10-8--------------|
B|-------8-5------------------8----------10---10--------10-8----8-10-|
G|--7b-------7-5---7-5---------------------------------------10------|
D|---------------7-----7-5-------------------------------------------|
A|-------------------------7-----------------------------------------|
E|-------------------------------------------------------------------|

e|-----5------------------------------------|
B|-------8-5--------------------------------|
G|--7b-------7-5---7-5-----------5---5-5----|
D|---------------7-----7-5---5-7---7-----5--|
A|-------------------------7----------------|
E|------------------------------------------|

e|-----5--------------------------------------------------------
B|-------8-5----------------------------------------------------
G|--7b-------7-5---7-5---------------------10-------------------
D|---------------7-----7-5--------------10----12-10----10-12/14-
A|-------------------------7-5-7-5-7/12-------------12----------
E|--------------------------------------------------------------

e|-------------------------------------------------|
B|--------------13-15-15b-15b-13----13-15-15-15-15-|
G|--12----12-14------------------14----------------|
D|-----14------------------------------------------|
A|-------------------------------------------------|
E|-------------------------------------------------|

repeat this a couple of times
e|---------------|
B|--15b-15-13----|
G|------------14-|
D|---------------|
A|---------------|
E|---------------|

then do this once
e|-------------------|
B|--15b-15-13-15/17--|
G|-------------------|
D|-------------------|
A|-------------------|
E|-------------------|

slide riff:
repaeat about 4 times
e|--8\7-8\5-|
B|----------|
G|----------|
D|----------|
A|----------|
E|----------|

then do this:
(fast)
e|--8-5-8-5-8-5-8-5-8-5-8/10-|
B|---------------------------|
G|---------------------------|
D|---------------------------|
A|---------------------------|
E|---------------------------|

*****
do these chords a couple times to end
e|--5-5-x-x-x-x-3-3-x-x-x-x-1-x-1-x-1-x-1-x-1-3-|
B|--5-5-x-x-x-x-3-3-x-x-x-x-1-x-1-x-1-x-1-x-1-3-|
G|--5-5-x-x-x-x-4-4-x-x-x-x-2-x-2-x-2-x-2-x-2-4-|
D|--7-7-x-x-x-x-5-5-x-x-x-x-3-x-3-x-3-x-3-x-3-5-|
A|--7-7-x-x-x-x-5-5-x-x-x-x-3-x-3-x-3-x-3-x-3-5-|
E|--5-5-x-x-x-x-3-3-x-x-x-x-1-x-1-x-1-x-1-x-1-3-|
**





Comments


Popular Led Zeppelin tabs & chords
Custard Pie Bass Tabs
Stairway To Heaven (Live) Chords
Custard Pie Drum Tabs
Dyer Maker Drum Tabs
Babe I'm Gonna Leave You 2 Tabs
Bring It On Home Tabs
In The Evening 2 Tabs
Stairway To Heaven Flute Part Tabs
Tangerine 1 Tabs
Ten Years Gone 6 Tabs


Song lyrics



↑ Back to top | Tablatures and chords are parodies/interpretations of the original songs. You may use it for private study, scholarship, research or language learning purposes only
© 2014 AZChords.com Contact us | Privacy policy | DMCA | Add/correct tabs | Request tabs | Top 50 tabs