>
 >
Stairway To Heaven Easy

Stairway To Heaven Easy Guitar Tabs

Led Zeppelin - Stairway To Heaven Easy chords, tabs, tablatures, lyrics

Guitar lessons | Add/correct | Request | Top 50 tabs Artists:  A B C D E F G H I J K L M N O P Q R S T U V W X Y Z 0-9

Stairway To Heaven Easy Guitar Tabs – Led Zeppelin

CD, Sheet music, Poster

Do you like Stairway To Heaven Easy? Share with your friends now
Tabs
“Stairway To Heaven”
Written By Led Zeppelin
Looks different sounds great
  

E-----5----7---|-----8----2---|-----0--------|--------------|
A----5----5----|----5----3----|----1---------|--------------| 
D---5----5-----|---5----2-----|---2----------|--0-2-2-------|
G--7----6------|--5----4------|--3-----------|--------------|
B--------------|--------------|--------------|--2-0-0-0-8-7-|
E--------------|--------------|--------------|--------------|

E-----5--7-----|--8----2--2---|--0-----------|--------------|
B----5----5----|---5----3-----|---1-1--------|--------------|
G---5------5---|----5----2----|----2---------|--0-2-2-------|
D--7--------5--|-----5--------|--------------|--------------|
A--------------|--------------|--------------|--2-0-0---0-2-|
E--------------|--------------|--------------|--------------|

E-----0-2---2--|-----0--------|------3-3-3-2-|--3-2-2-2-----|
B--------3-----|----1--0-1----|-----1-1------|--3---3-3-----|
G----0----2----|---2------2---|----0---------|--2-----2-----|
D---2----------|--3-----------|---2----------|--0-----0-----|
A--3-----------|-----------0-2|--3-----------|----------0-2-|
E--------------|--------------|--------3-----|--------------|

E-----0-2--2---|-----0--------|---------2--2-|--0-0-0-------|
B--------3-----|----1--0-1----|-----1-1--3---|--1-1-1-------|
G----0----2----|---2------2---|----0------2--|--2-2-2-------|
D---2----------|--3-----------|---2----------|--3-3-3-------|
A--3-----------|-----------0-2|--3-----------|--------------|
E--------------|--------------|--------------|--------------|
   
E-----5----7---|-----8----2---|-----0----0---|--------------|
A----5----5----|----5----3----|----1----1----|--------------| 
D---5----5-----|---5----2-----|---2----2-----|--0-2-2-------|
G--7----6------|--5----4------|--3-----------|--------------|
B--------------|--------------|--------------|--2-0-0-0-8-7-|
E--------------|--------------|--------------|--------------|

   E------5-7---7--|----8-------2----|----0-----0---|-------|
   B---------5-5-5-|---5-5-----3-3---|---1-1---1-1--|-------|
   G-----5----5---5|--5---5---2---2-2|--2---2-2---2-|-0-2-2-|
   D----7----------|-5-----5-4-----4-|-3-----3-----3|-------|
   A-0-0-----------|-----------------|--------------|-2-0-0-|  
   E---------------|-----------------|--------------|-------|





E--3---3-3-3---3--0-0|-2----2-----|-3---3-3-3---0-0|--5--3--5|
B--1---1-1-1---1--1-3|-3-3-3-2-0-0|-1---1-1-1---1-1|--7--5--7|
G--2---2-2-2---2--2-2|-2-------0-0|-2---2-2-2---2-2|--7--5--7|
D--2---2-2-2---2--2-2|--0---------|-2---2-2-2---2-2|---------|
A--------------------|------------|----------------|---------|
E--------------------|------------|----------------|---------|

E--3---3-3-3---3--0-0|-2----2-----|-3---3-3-3---0-0|--5--3--5|
B--1---1-1-1---1--1-3|-3-3-3-2-0-0|-1---1-1-1---1-1|--7--5--7|
G--2---2-2-2---2--2-2|-2-------0-0|-2---2-2-2---2-2|--7--5--7|
D--2---2-2-2---2--2-2|--0---------|-2---2-2-2---2-2|---------|
A--------------------|------------|----------------|---------|
E--------------------|------------|----------------|---------|

E-----------------|---------------|-------------|--0----------|
B----------1----3-|---0-1----1----|----1--------|--1----------|
G---------0----0--|------2--2-----|---0----0--2-|--2----------|
D--------2----0---|--------2------|--2----0---1-|--2----------|
A-0-2---3----2----|-----------0-2-|-3----2----1-|-----0-2-----|
E-----------------|---------------|-----------3-|-------------|

E-------------|---------------|-------------|--0----------|
B------1----3-|-0-1----1------|----1--------|--1----------|
G-----0----0--|------2--2-----|---0----0--2-|--2----------|
D----2----0---|--------2------|--2----0---1-|--2----------|
A---3----2----|-----0----0-2--|-3----2----1-|-------------|
E-------------|---------------|-----------3-|-------------|

E-3---3-3-3---3--0-0|-2----2-----|-3---3-3-3---0-0|2--2-2-2--0-0
B-1---1-1-1---1--1-3|-3-3-3-2-0-0|-1---1-1-1---1-1|3--3-3-3--0-0
G-2---2-2-2---2--2-2|-2-------0-0|-2---2-2-2---2-2|2--2-2-2--0-0
D-2---2-2-2---2--2-2|--0---------|-2---2-2-2---2-2|---------0---
A-------------------|------------|----------------|-------------
E-------------------|------------|----------------|-------------

E-3---3-3-3---3--0-0|-2----2-----|-3---3-3-3---0-0|2--2-2-2--0-0
B-1---1-1-1---1--1-3|-3-3-3-2-0-0|-1---1-1-1---1-1|3--3-3-3--0-0
G-2---2-2-2---2--2-2|-2-------0-0|-2---2-2-2---2-2|2--2-2-2--0-0
D-2---2-2-2---2--2-2|--0---------|-2---2-2-2---2-2|---------0---
A-------------------|------------|----------------|-------------
E-------------------|------------|----------------|-------------

E-----------------|---------------|-------------|--0----------|
B----------1----3-|---0-1----1----|----1--------|--1----------|
G---------0----0--|------2--2-----|---0----0--2-|--2----------|
D--------2----0---|--------2------|--2----0---1-|--2----------|
A-0-2---3----2----|-----------0-2-|-3----2----1-|-----0-2-----|
E-----------------|---------------|-----------3-|-------------|

E-------------|---------------|-------------|--0----------|
B------1----3-|-0-1----1------|----1--------|--1----------|
G-----0----0--|----2--2-------|---0----0--2-|--2----------|
D----2----0---|------2--------|--2----0---1-|--2----------|
A---3----2----|-----0-----0-2-|-3----2----1-|-------------|
E-------------|---------------|-----------3-|-------------|

E--3---3-3-3---3--0-0|-2----2-----|-3---3-3-3---0-0|--5--3--5|
B--1---1-1-1---1--1-3|-3-3-3-2-0-0|-1---1-1-1---1-1|--7--5--7|
G--2---2-2-2---2--2-2|-2-------0-0|-2---2-2-2---2-2|--7--5--7|
D--2---2-2-2---2--2-2|--0---------|-2---2-2-2---2-2|---------|
A--------------------|------------|----------------|---------|
E--------------------|------------|----------------|---------|

E-3---3-3-3---3--0-0|-2----2-----|-3---3-3-3---0-0|2--2-2-2--0-0
B-1---1-1-1---1--1-3|-3-3-3-2-0-0|-1---1-1-1---1-1|3--3-3-3--0-0
G-2---2-2-2---2--2-2|-2-------0-0|-2---2-2-2---2-2|2--2-2-2--0-0
D-2---2-2-2---2--2-2|--0---------|-2---2-2-2---2-2|---------0---
A-------------------|------------|----------------|-------------
E-------------------|------------|----------------|-------------





Comments


Popular Led Zeppelin tabs & chords
Custard Pie Bass Tabs
Good Times Bad Times 2 Bass Tabs
Rock And Roll Bass Tabs
Immigrant Song 1 Drum Tabs
Dazed And Confused (Solo Ver 2) Tabs
Heartbreaker 3 Tabs
I Can't Quit You Baby Tabs
The Girl I Love She Got Long Black Wavy Hair 1 Tabs
The Ocean Tabs
The Ocean 7 Tabs


Song lyrics



↑ Back to top | Tablatures and chords are parodies/interpretations of the original songs. You may use it for private study, scholarship, research or language learning purposes only
© 2014 AZChords.com Contact us | Privacy policy | DMCA | Add/correct tabs | Request tabs | Top 50 tabs