» » »

Led Zeppelin, Stair Way To Heaven Tabs (ver.4)

Artists:  A B C D E F G H I J K L M N O P Q R S T U V W X Y Z # 

Stair Way To Heaven Tabs (ver.4)

Led Zeppelin Tabs
Rating:
0/5 (0 votes)
Stair Way To Heaven lessons Tabs too difficult? Try these video lessons and learn fast
                
I tabbed it up cause after looking at every stairway to heaven tab, be it the full song or just the solo, it missed some essential parts, or it had the wrong notes.  Now I'm not saying those are bad tabs, I'm just saying they aren't exactly accurate ;)  I hope this is easy enough to read.  I seperated the tab in sections (read: phrases) that you can easily learn, start with the first set of notes, then move on to the next.  Its seperated to make it easier, so its not entirely timed.  Once you listen to the record you can get the rythm down real good.

|------5------------------------|
|--------8-5--------------------|
|-7b9r-------7-5---7-5----------|
|----------------5-----7-5------|
|--------------------------8----|
|-------------------------------|


|-----8-8-8b10r8-5-----8-10-8-----------------|
|-/10--------------/10--------10-8----8-10----|
|----------------------------------10---------|
|---------------------------------------------|
|---------------------------------------------|
|---------------------------------------------|


|-----5----------------------------------5----------------------------|
|-------8-5--------------------------------8-5------------------------|
|-7b9r------7-5---7-5-----------5-5-5----------7-5---7-5--------------|
|---------------7-----7-5---5-7-------5------------7-----7-5-7-5------|
|-------------------------7--------------------------------------8----|
|---------------------------------------------------------------------|


|---------------------------------------------------------15b17r15-13----|
|------------------------------------13-15b17r15-13-15-13----------------|
|---------------------------12-12h14-------------------------------------|
|-----10-12p10----10-12-/14----------------------------------------------|
|-/12----------12--------------------------------------------------------|
|------------------------------------------------------------------------|

This is the crazy bending part, its the same pattern repeated 7 times.
|-------------------------------------|
|-15b17rp13----15b17rp13----15b17rp13-|
|-----------14-----------14-----------|
|-------------------------------------|
|-------------------------------------|
|-------------------------------------|


|-------------------------------------|-----------------------|
|----15b17rp13----15b17rp13----15b17rp|=13----15b17rp13-------|
|-14-----------14-----------14--------|----14-----------14----|
|-------------------------------------|-----------------------|
|-------------------------------------|-----------------------|
|-------------------------------------|-----------------------|

                                 Hold bend hit the 14th fret with pinky then release bent
|-15b17r15-12-15p12--------------------14-----------------|
|-------------------15-13----13-15b17=====15pb17r13-------|
|-------------------------14------------------------14----|
|---------------------------------------------------------|
|---------------------------------------------------------|
|---------------------------------------------------------|

bend with first and second finger and play the 15th and 17th fret with the third and fourth
|--------15-17-15---------------------------|
|-15b17===========15pb17r13----13-15b17=====|
|---------------------------14--------------|
|-------------------------------------------|
|-------------------------------------------|
|-------------------------------------------|

                                                there's a slight vibrato here for effect
                                                              ~~
|------------------------------------------------------------------|
|-10b12--12-10----10-----------------------------------------------|
|--------------12----12-12b14--11b14-------------------------------|
|------------------------------------12p10-12p10-12b14r12-10-------|
|------------------------------------------------------------12----|
|------------------------------------------------------------------|


|----19p17----19p17----19p|=17--19b21=====|
|-17-------17-------17----|---------------|
|-------------------------|---------------|
|-------------------------|---------------|
|-------------------------|---------------|
|-------------------------|---------------|
There you have it, hold the last bend for a little while then start pumping out the three power chord progression until the end.  Great solo.  Amazing song.
Serge

Tablature Legend
----------------
 h   - hammer-on
 p   - pull-off
 b   - bend
 pb  - pre-bend
 r   - bend release (if no number after the r, then release immediately)
 /\  - slide into or out of (from/to "nowhere")
 s   - legato slide
 S   - shift slide
 ~   - vibrato


***************************************************************************************
***************************************************************************************
            
Submit corrections

comments powered by Disqus
↑ Back to top | Led Zeppelin Tabs for Stair Way To Heaven. Lyrics for acoustic guitar and electric guitar. Tablatures and chords are parodies/interpretations of the original songs. You may use it for private study, scholarship, research or language learning purposes only