>
 >
Stairway To Heaven 2

Stairway To Heaven 2 Guitar Tabs

Led Zeppelin - Stairway To Heaven 2 chords, tabs, tablatures, lyrics

Guitar lessons | Add/correct | Request | Top 50 tabs Artists:  A B C D E F G H I J K L M N O P Q R S T U V W X Y Z 0-9

Stairway To Heaven 2 Guitar Tabs – Led Zeppelin

CD, Sheet music, Poster

Do you like Stairway To Heaven 2? Share with your friends now
Bass TabsBass Tabs v2ChordsChords v2Chords v3Chords v4Chords v5Chords v6Chords v7Drum TabsDrum Tabs v2Drum Tabs v3Drum Tabs v4TabsTabs v2Tabs v3Tabs v4Tabs v5Tabs v6Tabs v7Tabs v8Tabs v9UkuleleUkulele v2
led zeppelin
stairway to heaven fixed detailed mistakes on others
standard tuning

E-------5-7-----7-|-8-----8-2-----2-|-0---------0-----|-----------------|
B-----5-----5-----|---5-------3-----|---1---1-----1---|-----------------|
G---5---------5---|-0---5-------2---|-----2---------2-|-0-2-2-----------|
D-7-------6-------|---------4-------|-3---------------|-----------------|
A-----------------|-----------------|-----------------|-2-0-0---0--/8-7-|
E-----------------|-----------------|-----------------|-----------------|
 
E---------7-----7-|-8-----8-2-----2-|-0---------0-----|-----------------|
B-------5---5-----|---5-------3-----|---1---1-----1---|-----------------|
G-----5-------5---|-0---5-------2---|-----2---------2-|-0-2-2-----------|
D---7-----6-------|---------4-------|-3---------------|-----------------|
A-0---------------|-----------------|-----------------|-2-0-0-------0-2-|
E-----------------|-----------------|-----------------|-----------------|
 
E-------0-2-----2-|-0-----0----------|---------3-----3-|-3p2-2-2--------|
B-----------3-----|---1-----0h1------|-1-----1---0-----|-3p2-3-3--------|
G-----0-------2---|-----2-------2----|---0---------0---|-2---2-2--------|
D---2-----0-------|-3----------------|-----2-----------|----------------|
A-3---------------|---------0----0-2-|-3---------------|-----------0--2-|
E-----------------|------------------|---------3-------|----------------|
                                                               
E---------2-----2-|-0-----0----------|---------------2-|-----------------|
B-------1---3-----|---1-----0h1------|-------1-----3---|-1-1-1-----------|
G-----0-------2---|-----2-------2----|-----0-----2-----|-2-2-2-----------|
D---2-----0-------|-3----------------|---2-----0-------|-3-3-3-----------|
A-3---------------|---------0----0-2-|-3---------------|-----------------|
E-----------------|------------------|-----------------|-----------------|
                                                               
 
E-------5-7-----7-|-8-----8-2-----2-|-0---------0-----|-----------------|
B-----5-----5-----|---5-------3-----|---1---1-----1---|-----------------|
G---5---------5---|-0---5-------2---|-----2---------2-|-0-2-2-----------|
D-7-------6-------|---------4-------|-3---------------|-----------------|
A-----------------|-----------------|-----------------|-2-0-0-----------|
E-----------------|-----------------|-----------------|-----------------|
 
 
E-------5-7-----7-|-8-----8-2-----2-|-0---------0-----|-----------------|
B-----5-----5-----|---5-------3-----|---1---1-----1---|-----------------|
G---5---------5---|-0---5-------2---|-----2---------2-|-0-2-2-----------|
D-7-------6-------|---------4-------|-3---------------|-----------------|
A-----------------|-----------------|-----------------|-2-0-0-------0-2-|
E-----------------|-----------------|-----------------|-----------------|
 
 
E---------2-----2-|-0-----0---------------|---------3-----3-|-3p2-2-2-------|
B-------1---3-----|---1-------0h1---------|-1-----1---0-----|-3p2-3-3-------|
G-----0-------2---|-----2---------2-------|---0---------0---|-2---2-2-------|
D---2-----0-------|-3---------------------|-----2-----------|---------------|
A-3---------------|-----------0------0-2--|-3---------------|-----------0-2-|
E-----------------|-----------------------|---------3-------|---------------|
  
 
E-------0-2-----2-|-0-----------------|---------2-----2-|-----------------|
B-----------3-----|---1--1--0h1-------|-1-----1---3-----|-1-1-1-----------|
G-----0-------2---|-----2-------2-----|---0---------2---|-0-2-2-----------|
D---2-----0-------|-3-----------------|-----2---0-------|-3-3-3-----------|
A-3---------------|---------------0-2-|-3---------------|-----------------|
E-----------------|-------------------|-----------------|-----------------|
  
 
E-------5-7-----7-|-8-----8-2-----2-|-0---------0-----|-----------------|
B-----5-----5-----|---5-------3-----|---1---1-----1---|-----------------|
G---5---------5---|-0---5-------2---|-----2---------2-|-0-2-2-----------|
D-7-------6-------|---------4-------|-3---------------|-----------------|
A-----------------|-----------------|-----------------|-2-0-0---0--/8-7-|
E-----------------|-----------------|-----------------|-----------------|

 
E--------5-7---7---|----8-------2------|----0-------0----|-----------------|
B-----------5-5-5--|---5-5-----3-3-----|---1--1----1-1---|-------------3---|
G------5-----5---5-|--5---5---2---2----|--2----2--2---2--|-0-2-2-------0---|
D----7-----6-------|-5-----5-4-----4---|-3-------3-----3-|-------------0---|
A--0---------------|-------------------|-----------------|-2-0-0-------2---|
E------------------|-------------------|-----------------|-----------------|
 
|-3---3-3-3--3--0-0-|-2--2--2-2-2-----|-3--3-3-3--3--0-0---7-|--5---3---5----
|-1---1-1-1--1--1-3-|-3--3--3-3-3-0-0-|-1--1-1-1--1--1-1---8-|--7---5---7----
|-2---2-2-2--2--2-2-|-2--2--2-2-2-0-0-|-2--2-2-2--2--2-2---9-|--7---5---7----
|-2---2-2-2--2--2---|---0-------------|-2--2-2-2--2--2-2---0-|-------------0-
|-------------------|-----------------|----------------------|-------------0-
|-------------------|-----------------|----------------------|---------------
                     
|-3---3-3-3--3--0-0-|-2--2--2-2-------|-3--3-3-3--3--0-0---7-|--5---3---5----
|-1---1-1-1--1--1-3-|-3--3--3-3-3-0-0-|-1--1-1-1--1--1-1---8-|--7---5---7----
|-2---2-2-2--2--0-2-|-2--2--2-2---0-0-|-2--2-2-2--2--2-2---9-|--7---5---7----
|-2---2-2-2--2--2---|0----------------|-2--2-2-2--2--2-2---0-|--------------
|--------------0-0--|-----------------|----------------------|-------------0-2
|-------------------|-----------------|----------------------|---------------
   
 
------------------|------------------------|-----------------0--|--0--------
---------1------3-|-0h1----------1---------|-------1---------0--|--1--------
-------0------0---|-----2-------2----------|-----0--------0--2--|--2--------
-----2------0-----|---------2--------------|---2--------0----3--|--2--------
---3------2-------|-------0----------0--2--|-3--------2------3--|--0---0-2--
------------------|------------------------|-----------------1--|-----------

 
----------------|--------------------|----------------0-|--0------|---------------|
-------1------3-|-0h1---------1------|-------1--------1-|--1------|---------------|
-----0------0---|-----2-----2--------|-----0-------0--2-|--2------|---0-----0-----|
---2------0-----|---------2----------|---2-------0----3-|--2------|--2-----0------|
-3------2-------|-------0------0--2--|-3-------2------3-|--0--0-2-|-3---3-2----2--|
----------------|--------------------|----------------1-|---------|---------------|
repeat a lot of times
 
 

|----------5---------------|------------------8--8-|
|------------8-5-----------|-------------8b10------|
|---7b9----------7-5---7p5-|-----------------------|
|--------------------7-----|-7p5-------------------|
|--------------------------|----8------------------|
|--------------------------|-----------------------|

|--8b10---8--5  -----8--10-|-8-----------------------5-------|
|---------------8b10-------|---10-8----8h10------------8-5---|
|--------------------------|--------10-----------7b9-------7-|
|--------------------------|---------------------------------|
|--------------------------|---------------------------------|
|--------------------------|---------------------------------|

|----------------------------|----5------------------------|
|----------------------------|------8-5--------------------|
|-5---7p5------------5---5-5-|----------7-5--7p5-----------|
|---7-----7-5---5-7----7-----|-5------------7----7p5-7p5---|
|-------------7--------------|---------------------------8-|
|----------------------------|-----------------------------|

|---------------------------------------------|
|------------------------------------------13-|
|---------10-------------------12----12-14----|
|------10----12-10----10-12/14----14----------|
|-8/12-------------12-------------------------|
|---------------------------------------------|

|------------------------15b17-15-12----------------|
|--15b17-15-13--15-13-13-------------15b17-15-13----|
|------------------------------------------------14-|
|---------------------------------------------------|
|---------------------------------------------------|
|---------------------------------------------------|
 
|----------------------------------------------------------------------------
|-13-15b17b15p13----13-15b17b15p13----13---15b17b15p13----13--15b17b15p13----
|----------------14----------------14------------------14-----------------14-
|----------------------------------------------------------------------------
|----------------------------------------------------------------------------
|----------------------------------------------------------------------------
 
|----------------------------------------------------------------------------
|-13-15b17b15p13----13--15b17b15p13----13--15b17b15p13----13--15b17b15p13----
|----------------14-----------------14-----------------14-----------------14-
|----------------------------------------------------------------------------
|----------------------------------------------------------------------------
|----------------------------------------------------------------------------

|------------------------------------------15b17--|
|-13--15b17b15p13----13---15b17b15p13----13-------|
|-----------------14------------------14----------|
|-------------------------------------------------|
|-------------------------------------------------|
|-------------------------------------------------|

|-b17b15-12---12--------------------------------15--|
|-----------15---15--13----13-15-13---13--15b17-----|
|-----------------------14----------14--------------|
|---------------------------------------------------|
|---------------------------------------------------|
|---------------------------------------------------|
 
-----------------------------|-----------17----------------------------------
-15b17b15p13----13/12--13/10-|--------20----20-20----------------------------
-------------14--------------|--19b21-21----------19b21b19p17---19--17----19-
-----------------------------|--------------------------------19-------19----
-----------------------------|-----------------------------------------------
-----------------------------|-----------------------------------------------
                       
|--------------------|--------------------------------|--------------|
|--------------------|--------------------------------|--------------|
|-19b21--13/12 13/10-|--14b17--14b17-14--12--14--12-12b14------------|
|--------------------|--------------------------------|--------------|
|--------------------|--------------------------------|--------------|
|--------------------|--------------------------------|--------------|
                        
|-----------------------------------|----------8/7--8/5--|
|-----------------------------------|--------------------|
|-10b14----10b12b10-9-7----7--------|-7-9-7--------------|
|-----------------------10----10----|-------10-7---------|
|-----------------------------------|--------------------|
|-----------------------------------|--------------------|

|----20-p17------20-p17------20-p17------20-p17------20-p17-----20b22-|
|-17--------17----------17----------17----------17----------17--------|
|---------------------------------------------------------------------|
|---------------------------------------------------------------------|
|---------------------------------------------------------------------|
|---------------------------------------------------------------------|
 

 
  Am           G                  F  G   Am           G                F  G
|-5------------3----------------|-1--3-|-5------------3-------------|--1--3-
|-5------------3----------------|-1--3-|-5------------3-------------|--1--3-
|-5------------4----------------|-2--4-|-5------------4-------------|--2--4-
|-7------------5----------------|-3--5-|-7------------5-------------|--3--5-
|-7------------5----------------|-3--5-|-7------------5-------------|--3--5-
|-5------------3----------------|-1--4-|-5------------3-------------|--1--4-
 
  Am           G               F  G    Am           G
|-5------------3-------------|-1--3--|-5------------3----------|
|-5------------3-------------|-1--3--|-5------------3----------|
|-5------------4-------------|-2--4--|-5------------4----------|
|-7------------5-------------|-3--5--|-7------------5----------|
|-7------------5-------------|-3--5--|-7------------5----------|
|-5------------3-------------|-1--4--|-5------------3----------|

 
  F                       G    Am       G
--1-----------------------3--|-------------------------------
--1-----------------------3--|-------------------------------
--2-----------------------4--|-------------------------------
--3-----------------------5--|-------------------------------
--3----------3--5h7--5--3-5--|-------------------------------
--1----1-3h5--------------3--|-5---5--------3--3-------------

 
                      Am           G               F  G    Am     G
|---------------------5------------3-------------|-1--3--|-5------3----------
|---------------------5------------3-------------|-1--3--|-5------3----------
|---------------------5------------4-------------|-2--4--|-5------4----------
|---------------------7------------5-------------|-3--5--|-7------5----------
|-------3--5h7--5--3--7------------5-------------|-3--5--|-7------5----------
|-1-3h5---------------5------------3-------------|-1--4--|-5-5----3--3-------
 
 
   F                     G   Am    G     F
|--1------------------------|----------0-|---0-0-0-0-----
|--1------------------------|----------1-|---1-1-1-1-----
|--2------------------------|----------2-|---2-2-2-2-----
|--3------------------------|----------3-|---3-3-3-3-----
|--3----------3--5h7--5--3--|------------|---------------
|--1----1-3h5---------------|-5-5--3-3-1-|-1----------5-5

 
 Am    G       Fmaj7          Am      Am7/G      Fmaj7
|-----------0-|-0-0-0-0------|--------8-10-----|-------------------------
|-----------1-|-1-1-1-0------|-8/10--------10--|--8h10p10----------3-3---
|-----------2-|-2-2-2-0------|-----------------|-----------------5b7-2---
|-----------3-|-3-3-3-0------|-----------------|---------------------3---
|-------------|--------------|-----------------|-------------------------
|-5-5--3-3--1-|--------------|-----------------|-------------------------
  
 
Am       Am7/G            Fmaj7              Am        Am7/G
----------------------0--|-------------------|------------------------
----5-------8------10-3--|-----13-------12---|-----13------12------13-
--7b9----10b12--12b14-0--|--15b17----14b16---|--15b17---14b16---15b17__
----------------------0--|-------------------|-------------------------
-------------------------|-------------------|-------------------------
-------------------------|-------------------|-------------------------
 Fmaj7
|-----------------------------------------
|-13------12-------13------15--------------
__17---14b16----15b17---17b19--------------
|-----------------------------------------
|------------------------------------------
|------------------------------------------
 
slow
Am        Am7/G         Fmaj7
----------------------|-0---------------------------------------------
----13------12-----15-|-1----13---------------------------------------
-15b17---14b16--17b19-|-2-15b17---------------------------------------
----------------------|-3---------------------------------------------
----------------------|-----------------------------------------------
----------------------|-----------------------------------------------





Comments


Popular Led Zeppelin tabs & chords
Custard Pie 3 Bass Tabs
Over The Hills And Far Away 3 Bass Tabs
Communication Breakdown Chords
Bring It On Home Drum Tabs
Achilles Last Stand 7 Tabs
D'yer Maker Tabs
Rock And Roll No Tabs
Stairway To Heaven (Live) Tabs
Tangerine 7 Tabs
The Rain Song 4 Tabs


Song lyrics



↑ Back to top | Tablatures and chords are parodies/interpretations of the original songs. You may use it for private study, scholarship, research or language learning purposes only
© 2014 AZChords.com Contact us | Privacy policy | DMCA | Add/correct tabs | Request tabs | Top 50 tabs