>
 >
Stairway To Heaven 12 String Added

Stairway To Heaven 12 String Added Guitar Tabs

Led Zeppelin - Stairway To Heaven 12 String Added chords, tabs, tablatures, lyrics

Guitar lessons | Add/correct | Request | Top 50 tabs Artists:  A B C D E F G H I J K L M N O P Q R S T U V W X Y Z 0-9

Stairway To Heaven 12 String Added Guitar Tabs – Led Zeppelin

CD, Sheet music, Poster

Do you like Stairway To Heaven 12 String Added? Share with your friends now
Tabs
Hey guys out there.  This is the song that started it all.  
You cant call yourself a guitarist until you learn this song.  
Jimmy Page and Robert Plant wrote this little didi.  
It dates back to 1972.  Its older than me twice over.  
Anyway, this is it.  Please send me any changes.  
Most is from ear.  I added the little recorder-flute things deals 
during the intro, tabbed out for the guitar.  
It would be cool to do it on a 12 string.  Have fun.  
Live on Silent Ovation.

THE 12 STRING PART IS MARKED BY THE (*)

Intro

Gtr. 1
E-------5-7-----7-|-8-----8-2-----2-|-0---------0-----|-----------------|
B-----5-----5-----|---5-------3-----|---1---1-----1---|-0-1-1-----------|
G---5---------5---|-----5-------2---|-----2---------2-|-0-2-2-----------|
D-7-------6-------|-5-------4-------|-3---------------|-----------------|
A-----------------|-----------------|-----------------|-2-0-0---0--/8-7-|
E-----------------|-----------------|-----------------|-----------------|
This is the start of the recorders start  	   Gtr. 2 (12 string)
                                                      *-----------------|
                                                      *-----------------|
                                                      *-----------------|
                                                      *-----------------|
                                                      *-10-12-12--------|
                                                      *-----------------|

 
E---------7-----7-|-8-----8-2-----2-|-0---------0-----|-----------------|
B-------5---5-----|---5-------3-----|---1---1-----1---|-0--1--1---------|
G-----5-------5---|-----5-------2---|-----2---------2-|-0--2--2---------|
D---7-----6-------|-5-------4-------|-3---------------|-----------------|
A-0---------------|-----------------|-----------------|-2--0--0-----0-2-|
E-----------------|-----------------|-----------------|-----------------|

*-12--------------|-8---------------|-8---------------|-10-12-12--------|
*-13--------------|-10------10------|-10--------------|-12-13-13--------|
*-9---------------|-9-------7-------|-----------------|-----------------|
*-7---------------|-----------------|-10--------------|-----------------|
*-12------11------|-10------9-------|-8---------------|-12-12-12--------|
*-----------------|-----------------|-----------------|-----------------|
 
E-------0-2-----2-|-0-----0----------|---------3-----3|-3^2-2-2---------|
B-----------3-----|---1-----0h1------|-1-----1---0----|-----3-3---------|
G-----0-------2---|-----2-------2----|---0---------0--|-------2---------|
D---2-----0-------|-3----------------|-----2----------|-0---0-0---------|
A-3---------------|---------0----0-2-|-3--------------|-------------0-2-|
E-----------------|------------------|---------3------|-----------------|

*-----------------|-5---3----------3-|-3--------3-----|-7---5-5---------|                   
*-5-------7-------|-------6-5------3-|-5--------3-----|-8---7-7---------|                   
*-5-------7-------|-5---7---5--------|----------4-----|-7---7-7---------|                  
*-----------------|-3---3---2------5-|-5--------------|-----------------|                    
*-3-------5-------|------------------|----------------|-----------------|                   
*-----------------|------------------|----------------|-----------------|                   
                                                               
E---------2-----2-|-0-----0----------|---------------2-|-0--0--0--------|
B-------1---3-----|---1-----0^1------|-------1-----3---|-1--1--1--------|
G-----0-------2---|-----2-------2----|-----0-----2-----|-2--2--2--------|
D---2-----0-------|-3----------------|---2-----0-------|-3--3--3--------|
A-3---------------|---------0----0-2-|-3---------------|----------------|
E-----------------|------------------|-----------------|----------------|
						The intro¡s end
*-----------------|-5---8-7-8------10|-12------10------|----------------|
*----10-8-8-7-5-3-|------------------|-----------------|-8--10-10-------|
*-9---------------|-5---7-7-9--------|-12------11------|-9--10-10-------|
*-10-10-9-9-7-5-4-|-3-----5-7--------|-10------12------|-10-10-10-------|
*-----------------|------------------|-----------------|----------------|
*-----------------|------------------|-----------------|----------------|
                                                               


The continuing 12 string part is pretty cool when you play it with the guitar 1 part
VERSE 1
E-------5-7-----7-|-8-----8-2-----2-|-0---------0-----|-----------------|
B-----5-----5-----|---5-------3-----|---1---1-----1---|-0--1--1---------|
G---5---------5---|-----5-------2---|-----2---------2-|-0--2--2---------|
D-7-------6-------|-5-------4-------|-3---------------|-----------------|
A-----------------|-----------------|-----------------|-2--0--0---------|
E-----------------|-----------------|-----------------|-----------------|

*-----------------|-----------------|-----------------|-----------------|
*-----------------|-----------------|-----------------|-----------------|
*-----------------|-----------------|-----------------|-----------------|
*-----------------|-----------------|-----------------|-----------------|
*-12------11------|-10------9-------|-8---------------|-10-12-12--------|
*-----------------|-----------------|-----------------|-----------------|
 
E-------5-7-----7-|-8-----8-2-----2-|-0---------0-----|-----------------|
B-----5-----5-----|---5-------3-----|---1---1-----1---|-0--1--1---------|
G---5---------5---|-----5-------2---|-----2---------2-|-0--2--2---------|
D-7-------6-------|-5-------4-------|-3---------------|-----------------|
A-----------------|-----------------|-----------------|-2--0--0-----0-2-|
E-----------------|-----------------|-----------------|-----------------|
 
*-12--------------|-8---------------|-8---------------|-10-12-12--------|
*-13--------------|-10------10------|-10--------------|-12-13-13--------|
*-9---------------|-9-------7-------|-----------------|-----------------|
*-----------------|-----------------|-10--------------|-----------------|
*-12------11------|-10------9-------|-8---------------|-12-12-12--------|
*-----------------|-----------------|-----------------|-----------------|

E---------2-----2-|-0-----0---------------|---------3-----3-|-3^2-2-2-------|
B-------1---3-----|---1----1--0^1---------|-1-----1---0-----|-3---3-3-------|
G-----0-------2---|-----2---------2----0--|---0---------0---|-2-----2-------|
D---2-----0-------|-3---------------------|-----2-----------|-0---0-0-------|
A-3---------------|-----------0------0-2--|-3---------------|-----------0-2-|
E-----------------|-----------------------|---------3-------|---------------|

*-----------------|-----------------------|-----------------|---------------|
*-----------------|-----------------------|-----------------|---------------|
*-----------------|-----------------------|-----------------|---------------|
*-10------12------|-12--10-9--10-------12-|-14------12------|---------------|
*-----------------|-----------------------|-----------------|-10--12-12-----|
*-----------------|-----------------------|-----------------|---------------|
 
E--------0--2--------2-|-0-----------------|---------2-----2-|-0¡X-0-0-----|
B--------------3-------|---1--1¡X-0-1-------|-1-----1---3-----|-1--1-1-----|
G------0----------2----|-----2-------2-----|---0---------2---|-2--2-2-----|
D---2-------0----------|-3-----------------|-----2---0-------|-3--3-3-----|
A-3--------------------|---------------0-2-|-3---------------|------------|
E----------------------|-------------------|-----------------|------------|

*----------------------|-------------------|-12------10------|------------|
*----------------------|-10--12--13--------|-----------------|-8-10-10----|
*-12--13-12-12-10------|-10------14--------|-12------11------|-9-10-10----|
*-10--------------12-11|-10----------------|-10------12------|-9-10-10----|
*-----------12---------|---------12--------|-----------------|------------|
*----------------------|-------------------|-----------------|------------|

E-------5-7-----7-|-8-----8-2-----2-|-0---0-----0-----|-------------------|
B-----5-----5-----|---5-------3-----|---1---1-----1---|-0--1--1-----------|
G---5---------5---|-----5-------2---|---------------2-|-0--2--2-----------|
D-7-------6-------|-5-------4-------|-3---------------|-------------------|
A-----------------|-----------------|-----------------|-2--0--0---0--/8-7-|
E-----------------|-----------------|-----------------|-------------------|

*-12--------------|-8---------------|-8---------------|-10-12-12----------|
*-13--------------|-10------10------|-10--------------|-12-13-13----------|
*-9---------------|-9-------7-------|-----------------|-------------------|
*-----------------|-----------------|-10--------------|-------------------|
*-12------11------|-10------9-------|-8---------------|-12-12-12----------|
*-----------------|-----------------|-----------------|-------------------|
 
E--------5-7---7---|----8-------2------|----0-------0----|-----------------|
B-----------5-5-5--|---5-5-----3-3-----|---1--1----1-1---|-0--1--1-----3---|
G------5-----5---5-|--5---5---2---2--2-|--2----2--2---2--|-0--2--2-----0---|
D----7-----6-------|-5-----5-4-----4---|-3-------3-----3-|-------------0---|
A-0-0--------------|-------------------|-----------------|-2--0--0-----2---|
E------------------|-------------------|-----------------|-----------------|
 
*-12---------------|-8-----------------|-8---------------|-10-12-12--------|
*-13---------------|-10------10--------|-10--------------|-12-13-13--------|
*-9----------------|-9-------7---------|-----------------|-----------------|
*------------------|-------------------|-10--------------|-----------------|
*-12------11-------|-10------9---------|-8---------------|-12-12-12--------|
*------------------|-------------------|-----------------|-----------------|
start of the 2nd verse on the 12 string electric half of your double Gibson SG , if                                                        
you have the money.  That¡s how he did it live anyway¡K

 PRE-VERSE and VERSES 2-5 (4x) (use both guitars for pre-verse)

E-0^3--3-3-3--3--0--3-|-2---2--2-2--2-----|-3--3-3-3--3--0-0---7-|--5-x-3---5----|
B-1----1-1-1--1--1--3-|-3---3--3-3--3--0--|-1--1-1-1--1--1-1---8-|--7-x-5---7----|
G-0----0-0-0--0--0--0-|-2---2--2-2--2--0--|-0--0-0-0--0--0-2---9-|--7-x-5---7----|
D-2----2-2-2--2--2--2-|-0-0------------0--|-2--2-2-2--2--2-2---0-|----------0--2-|
A-0-----------------0-|-0-0------------0--|-0--0-0-0-------------|-------------0-|
E---------------------|-------------------|----------------------|---------------|
                Ooooo and    it makes me wonder
E-0^3-3-3-3--3--0--3-|-2---2-------2-2-2--0-0|-3--3-3-3--0----0---7-|--5-x-3---5-|
B-1---1-1-1--1--1--3-|-3---3---3---3-3-3--0-0|-1--1-1-1--1-x--1---8-|--7-x-5---7-|
G-0---0-0-0--0--0--0-|-2---2---0^2-2-2-2--0-0|-0--0-0-0--0-x--0---9-|--7-x-5---7-|
D-2---2-2-2--2--2----|-0---0-0---------------|-2--2-2-2--2-x--2-----|------------|
A-0----------------0-|-0---------------------|-0--------------------|------------|
E--------------------|-----------------------|----------------------|------------|
   ooooo               really makes me wonder                                       
VERSES
E-----------------|-------------------------|-----------------0--|--0--------|
B--------1------3-|-0h1-----------1---------|-------1---------0--|--1--------|
G------0------0---|-----2-------2-----------|-----0--------0--2--|--2--------|
D----2------0-----|---------2---------------|---2--------0----3--|--2--------|
B0h3------2-------|-------0-----------0--2--|-3--------2------3--|--0---0-2--|
E-----------------|-------------------------|-----------------1--|-----------|

*------3------3---|-------------5-----------|-----3--------3-----|--0--------|
*----5------3---3-|---------5-----1---------|---5--------3----1--|--1--------|
*4/5----5-4-------|-4/5-2-2-----------2--4--|-5-----5--4------2--|--2---2-4--|
*-----------------|-------------------------|-----------------3--|-----------|
*-----------------|-------------------------|--------------------|-----------|
*-----------------|-------------------------|--------------------|-----------|

E-----------------|-------------------------|-----------------0--|--0--------|
B--------1------3-|-0h1-----------1---------|-------1---------0--|--1--------|
G------0------0---|-----2-------2-----------|-----0--------0--2--|--2--------|
D----2------0-----|---------2---------------|---2--------0----3--|--2--------|
B--3------2-------|-------0-----------0--2--|-3--------2------3--|--0---0-2--|
E-----------------|-------------------------|-----------------1--|-----------|

*------3------3---|-------------5-----------|-----3--------3-----|--0--------|
*----5------3---3-|---------5-----1---------|---5--------3----1--|--1--------|
*4/5----5-4-------|-4/5-2-2-----------2--4--|-5-----5--4------2--|--2---2-4--|
*-----------------|-------------------------|-----------------3--|-----------|
*-----------------|-------------------------|--------------------|-----------|
*-----------------|-------------------------|--------------------|-----------|










E----------------|
B-------1------3-|
G-----0------0---|
D---2------0-----|
A-3------2-------|
E----------------|

*-----3------3---|
*---5------3-----|
*-5----5-4-----4-|
*----------------|
*----------------|
*----------------|  GO BACK TO THE PRE-VERSE 

THIS IS THE PART THAT GOES INTO THE SOLO THE 12 STRING HAS MOST OF THE MELODY  
E--2-------0-0-2|-3---0-0-2-3---0-0-2|-3---3---2--|-------------------|
B--3-------3-3-3|-3---3-3-3-3---3-3-3|-3---3---3--|-3---3---3-3--3----|
G--2-------2-2-2|-2---2-2-2-2---2-2-2|-2---2---2--|-0---0---0-0--0----|
D--0-------0-0-0|-0---0-0-0-0---0-0-0|-0---0---0--|-2---2---2-2--2----|
A---------------|--------------------|------------|-3---3---3-3--3----|
E---------------|--------------------|------------|-------------------|

*--5-------0-0-0|-3---0-0-2-3---0-0-2|-3---3---2--|-0---2---2-2--0---0|
*--7-------3-3-3|-3---3-3-3-3---3-3-3|-3---3---3--|-3---3---3-3--3---3|
*--7-------2-2-2|-2---2-2-2-2---2-2-2|-2---2---2--|-5---5---5-5--5---5|
*--0-------0-0-0|-0---0-0-0-0---0-0-0|-0---0---0--|-------------------|
*---------------|--------------------|------------|-------------------|
*---------------|--------------------|------------|-------------------|

E-------------------0-2|-3---0-0-2-3---0-0-2-|-3--3--2------|
B-3--3-3--3-3--3--3-3-3|-3---3-3-3-3---3-3-3-|-3--3--3--3---|
G-0--0-0--0-0--0--0-2-2|-2---2-2-2-2---2-2-2-|-2--2--2--0---|
D-2--2-2--2-2--2--2-0-0|-0---0-0-0-0---0-0-0-|-0--0--0--2---|
A-3--3-3--3-3--3--3----|---------------------|----------3---|
E----------------------|---------------------|--------------|

*------2--2-2--0--0-0-2|--3--0-0-2-3---0-0-2-|-3--3--2------|
*-3--3-3--3-3--3--3-3-3|--3--3-3-3-3---3-3-3-|-3--3--3--3---|
*-5--5-5--5-5--5--5-2-2|--2--2-2-2-2---2-2-2-|-2--2--2--5---|
*-------------------0-0|--0--0-0-0-0---0-0-0-|-0--0--0------|
*----------------------|---------------------|--------------|
*----------------------|---------------------|--------------| 

E--2---2--2---0-----|--------2---2----|
B--3---3--3-----3---|-3--3---3---3----|
G--0---0--0-------0-|-0--0---0---0----|
D-------------------|-0--0---0---0----|
A--3---3--3---------|-2--2---2---2----|
E-------------------|-----------------|

*--2---2--2---0-----|----0---2--------|
*--3---3--3-----3---|-3----3---3------|
*--5----------------|-4----------4^2--|
*-------------------|----------------5|
*-------------------|-----------------|
*-------------------|-----------------|

Here we go¡K  Before Led Zeppelin, most all of rock was either blues based (Clapton)
or psychedelic (Hendrix). Led zeppelin was said to be the band to start metal.  
Jimmy used so many techniques in the studio, it would make you head spin.
Although his solos were primarily based on blues scales, his style of playing
changed the earth.

Solo: this is what I think it is
E------5---------------|---------------8-8-|-8(10)-8-5------8-|10^8--------
B--------8^5-----------|---------8(10)-----|----------5/10----|----10^8----
G-7(9)-------7^5---7^5-|-------------------|------------------|---------10-
D----------------7-----|-7^5---------------|------------------|------------
A----------------------|----8--------------|------------------|------------
E----------------------|-------------------|------------------|------------

E------------5-------|---------------------------|---5----------------------
B-8^10---------8^5---|---------------------------|-----8^5------------------
G-------7(9)-------7-|-5---7^5-----------5---5-5-|-0-------7^5---5^7^5------
D--------------------|---7-----7^5---5-7---7-----|-------------7------7^5---
A--------------------|------------7--------------|--------------------------
E--------------------|---------------------------|--------------------------

E-------|-------------------------------------|----------------------15(17)
B-------|-------6--------------------------13-|-15(17)-15-13-15-13-13------
G-------|-----5---7^5---5------12----12-14----|----------------------------
D-7^5---|-5/7---¡X-----7----/14---14-----------|----------------------------
A-----8-|-------------------------------------|----------------------------
E-------|-------------------------------------|----------------------------

E-15-13-----------------|------------------------------|------------------|
B-------15(17)-15-13----|-13-15(17)15^13---------------|------------------|
G--------------------14-|---------------14--//--//--//-|-//--//--//--//---|
D-----------------------|------------------------------|------------------|
A-----------------------|------------------------------|------------------|
E-----------------------|------------------------------|------------------|
                                                                              **
E------------15(17)-|-12----12-------------------------------15-|--------------|
B---------13--------|----15----15-13----13-15-13----13-15(17)---|-(17)15^13----|
G-//--//------------|----------------14----------14-------------|-----------14-|
D-------------------|-------------------------------------------|--------------|
A-------------------|-------------------------------------------|--------------|
E-------------------|-------------------------------------------|--------------|
                                                  **
E----------17-----------------------------|---------|------------------
B-------20----20--------------------------|---------|------------------
G-19(21)---------(21)19^17----19-17----17-|-19(21)--|-14(15.5)-14(15.5)
D--------------------------19-------19----|---------|------------------
A-----------------------------------------|---------|------------------
E-----------------------------------------|---------|------------------
                   **                                 **
E----------|--------|---------------------|------------|---20^17---20^17----
B----------|--------|---------------------|---5--------|-17------17------17-
G-14-12-14-|-12/14--|-10(13)-10-9-7-5-7-5-|-7---7-5----|--------------------
D----------|--------|---------------------|---------7--|--------------------
A----------|--------|---------------------|------------|--------------------
E----------|--------|---------------------|------------|--------------------

E-20^17---20^17---20^17--20(22)-|
B-------17------17-----17-------|
G-------------------------------|
D-------------------------------|
A-------------------------------|
E-------------------------------|

** is where this fill goes E---------------|---------|
                           B-13/12----13/10|(10)-----|
                           G---------------|---------|
                           D---------------|---------|
                           A---------------|---------|
                           E---------------|---------|



 Am           G            F                 G   
E-5-5-x-x-x-x-3-3-x-x-x-x-|1-x-1-x-1-x-1-x-1-3| 
B-5-5-x-x-x-x-3-3-x-x-x-x-|1-x-1-x-1-x-1-x-1-3| 
G-5-5-x-x-x-x-4-4-x-x-x-x-|2-x-2-x-2-x-2-x-2-4|  
D-7-7-x-x-x-x-5-5-x-x-x-x-|3-x-3-x-3-x-3-x-3-5| 
A-7-7-x-x-x-x-5-5-x-x-x-x-|3-x-3-x-3-x-3-x-3-5| 
E-5-5-x-x-x-x-3-3-x-x-x-x-|1-x-1-x-1-x-1-x-3-3| 
   ¡KAnd as we wind on down¡K                                            
 




 Am           G            F                 G   
E-5-5-x-x-x-x-3-3-x-x-x-x-|1-x-1-x-1-x-1-x-1-3| 
B-5-5-x-x-x-x-3-3-x-x-x-x-|1-x-1-x-1-x-1-x-1-3| 
G-5-5-x-x-x-x-4-4-x-x-x-x-|2-x-2-x-2-x-2-x-2-4|  
D-7-7-x-x-x-x-5-5-x-x-x-x-|3-x-3-x-3-x-3-x-3-5| 
A-7-7-x-x-x-x-5-5-x-x-x-x-|3-x-3-x-3-x-3-x-3-5| 
E-5-5-x-x-x-x-3-3-x-x-x-x-|1-x-1-x-1-x-1-x-3-3| 
    ¡KOur shadows taller than¡K

 Am           G            F                 G   
E-5-5-x-x-x-x-3-3-x-x-x-x-|1-x-1-x-1-x-1-x-1-3| 
B-5-5-x-x-x-x-3-3-x-x-x-x-|1-x-1-x-1-x-1-x-1-3| 
G-5-5-x-x-x-x-4-4-x-x-x-x-|2-x-2-x-2-x-2-x-2-4|  
D-7-7-x-x-x-x-5-5-x-x-x-x-|3-x-3-x-3-x-3-x-3-5| 
A-7-7-x-x-x-x-5-5-x-x-x-x-|3-x-3-x-3-x-3-x-3-5| 
E-5-5-x-x-x-x-3-3-x-x-x-x-|1-x-1-x-1-x-1-x-3-3| 
    ¡Kthere walks a lady we¡K


 Am           G            F                 G   
E-5-5-x-x-x-x-3-3-x-x-x-x-|1-x-1-x-1-x-1-x-1-3| 
B-5-5-x-x-x-x-3-3-x-x-x-x-|1-x-1-x-1-x-1-x-1-3| 
G-5-5-x-x-x-x-4-4-x-x-x-x-|2-x-2-x-2-x-2-x-2-4|  
D-7-7-x-x-x-x-5-5-x-x-x-x-|3-x-3-x-3-x-3-x-3-5| 
A-7-7-x-x-x-x-5-5-x-x-x-x-|3-x-3-x-3-x-3-x-3-5| 
E-5-5-x-x-x-x-3-3-x-x-x-x-|1-x-1-x-1-x-1-x-3-3| 
   ¡Kwho shines white light¡K  
                          |-------------------|
                          |-------------------|
                  fill:   |-------------------| 
                          |-------------------|
                          |----3------5h7--5--|                                          
                          |1/5---------------8|


 Am           G            F                 G   
E-5-5-x-x-x-x-3-3-x-x-x-x-|1-x-1-x-1-x-1-x-1-3| 
B-5-5-x-x-x-x-3-3-x-x-x-x-|1-x-1-x-1-x-1-x-1-3| 
G-5-5-x-x-x-x-4-4-x-x-x-x-|2-x-2-x-2-x-2-x-2-4|  
D-7-7-x-x-x-x-5-5-x-x-x-x-|3-x-3-x-3-x-3-x-3-5| 
A-7-7-x-x-x-x-5-5-x-x-x-x-|3-x-3-x-3-x-3-x-3-5| 
E-5-5-x-x-x-x-3-3-x-x-x-x-|1-x-1-x-1-x-1-x-3-3| 
   ¡Khow everything still¡K                                      
E-------------------------|-------------------|
B-------------------------|-------------------|
G-------------------------|-------------------| 
D-------------------------|-------------------|
A-7-7---------5-5---------|----3------5h7--5--|
E-5-5---------3-3---------|1/5---------------8|
                                             

 Am           G            F                 G   
E-5-5-x-x-x-x-3-3-x-x-x-x-|1-x-1-x-1-x-1-x-1-3| 
B-5-5-x-x-x-x-3-3-x-x-x-x-|1-x-1-x-1-x-1-x-1-3| 
G-5-5-x-x-x-x-4-4-x-x-x-x-|2-x-2-x-2-x-2-x-2-4|  
D-7-7-x-x-x-x-5-5-x-x-x-x-|3-x-3-x-3-x-3-x-3-5| 
A-7-7-x-x-x-x-5-5-x-x-x-x-|3-x-3-x-3-x-3-x-3-5| 
E-5-5-x-x-x-x-3-3-x-x-x-x-|1-x-1-x-1-x-1-x-3-3| 
  ¡Kand if you listen very¡K                                           
E-------------------------|-------------------|
B-------------------------|-------------------|
G-------------------------|-------------------| 
D-------------------------|-------------------|
A-7-7---------5-5---------|----3------5h7--5--|
E-5-5---------3-3---------|1/5---------------8|

 




 Am           G            F                 G   
E-5-5-x-x-x-x-3-3-x-x-x-x-|1-x-1-x-1-x-1-x-1-3| 
B-5-5-x-x-x-x-3-3-x-x-x-x-|1-x-1-x-1-x-1-x-1-3| 
G-5-5-x-x-x-x-4-4-x-x-x-x-|2-x-2-x-2-x-2-x-2-4|  
D-7-7-x-x-x-x-5-5-x-x-x-x-|3-x-3-x-3-x-3-x-3-5| 
A-7-7-x-x-x-x-5-5-x-x-x-x-|3-x-3-x-3-x-3-x-3-5| 
E-5-5-x-x-x-x-3-3-x-x-x-x-|1-x-1-x-1-x-1-x-3-3| 
  ¡Kthe tune will come to you¡K                                     
E-------------------------|-------------------|
B-------------------------|-------------------|
G-------------------------|-------------------| 
D-------------------------|-------------------|
A-7-7---------5-5---------|----3------5h7--5--|
E-5-5---------3-3---------|1/5---------------8|



 Am           G            F                G   
E-5-5---------3-3---------|1---1---1-1-1-1--3| 
B-5-5---------3-3---------|1---1---1-1-1-1--3| 
G-5-5---------4-4---------|2---2---2-2-2-2--4|  
D-7-7---------5-5---------|3---3---3-3-3-3--5| 
A-7-7---------5-5---------|3---3---3-3-3-2--5| 
E-5-5---------3-3---------|1---1---1-1-1-1--3| 
  ¡Kwhen all are one and¡K                                              

 Am           G            F                G   
E-5-5---------3-3---------|1---1---1-1-1-1--3| 
B-5-5---------3-3---------|1---1---1-1-1-1--3| 
G-5-5---------4-4---------|2---2---2-2-2-2--4|  
D-7-7---------5-5---------|3---3---3-3-3-3--5| 
A-7-7---------5-5---------|3---3---3-3-3-2--5| 
E-5-5---------3-3---------|1---1---1-1-1-1--3| 
 ¡Kto be a rock and not to¡K
 
 
After that, guitar    Fmaj7
2 plays this until  E-0---0---------0-------1-1-0-0|
the end and ends    B-1---1---1-1-1-1---1-1-1-1-0-0|
on the fmaj7 chord. G-2---2---2-2-2-2---2-2-2-2-2-0|
easy, right?        D-3---3---3-3-3-3---3-3--------|
                    A-3---3---------3--------------|
                    E-1-1-1---------1--------------|

While guitar 2 is having fun w/ that, guitar 1 plays this
 
 A5  Am     Am7/G      C/G             Fmaj7
E------------------------------|---------------------|
B-8^10¡X10~~~--------10¡X--------|--8^10--10---------3-|
G-------------7/9-9------------|-----------------5b7-|
D------------------------------|---------------------|
A------------------------------|---------------------|
E------------------------------|---------------------|
  
    A5   Am   Am7/G   C/G     Fmaj7                A5   Am    Am7/G  C/G
E-------------------------|-------------------|------------------------|
B--5-------8------10------|--13-------12------|--13------12------13----|
G--7b9-----10b12--12b14---|--15b17----14b16---|--15b17---14b16---15b17-|
D-------------------------|-------------------|------------------------|
A-------------------------|-------------------|------------------------|
E-------------------------|-------------------|------------------------|
 
  Fmaj7                     A5  Am    Am7/G  C/G  Fmaj7
E-------------------------|----------------------|--------|
B--12-------13------15----|-13------12-----15----|--13----|
G--14b16----15b17---17b19-|-15b17---14b16--17b19-|--15b17-|
D-------------------------|----------------------|--------|
A-------------------------|----------------------|--------|
E-------------------------|----------------------|--------|
                                                   And shes buying a stairway to heaven

-There's a lady who's sure
All that glitters is gold
And she's buying a stairway to heaven.
When she gets there she knows
If the stores are all closed
With a word she can get what she came for.
Ooh, ooh, and she's buying a stairway to heaven.

There's a sign on the wall
But she wants to be sure
'Cause you know sometimes words have two meanings.
In a tree by the brook
There's a songbird who sings,
Sometimes all of our thoughts are misgiven.
Ooh, it makes me wonder,
Ooh, it makes me wonder.
 
There's a feeling I get
When I look to the west,
And my spirit is crying for leaving.
In my thoughts I have seen
Rings of smoke through the trees,
And the voices of those who standing looking.
Ooh, it makes me wonder,
Ooh, it really makes me wonder.
 
And it's whispered that soon
If we all call the tune
Then the piper will lead us to reason.
And a new day will dawn
For those who stand long
And the forests will echo with laughter.
 
If there's a bustle in your hedgerow
Don't be alarmed now,
It's just a spring clean for the May queen.
Yes, there are two paths you can go by
But in the long run
There's still time to change the road you're on.
And it makes me wonder.
 
Your head is humming and it won't go
In case you don't know,
The piper's calling you to join him,
Dear lady, can you hear the wind blow,
And did you know
Your stairway lies on the whispering wind.
 
And as we wind on down the road
Our shadows taller than our soul.
There walks a lady we all know
Who shines white light and wants to show
How ev'rything still turns to gold.
And if you listen very hard
The tune will come to you at last.
When all are one and one is all
To be a rock and not to roll.
 
And she's buying a stairway to heaven.
 
 That, ladies and gentlefolk, is one of the 
best songs ever to be written.  Good luck 
with the solo.  You can do it.  If you cant get it,
just slow it down and take a breather.  Don¡t quote me on the 
ending, I didn¡t really have the time to figure that out.
After you master this song, you can say that you know 
how to play a song written by one of the greatest legends of
our time (or our dad¡s time), and you can call yourself a guitarist.
Take care of yourself. Peace out. ~Steve
   ¡When I look at the fret board, I don¡t just see a fret board, 
I see an opportunity.¡ ~Self quote I tell myself.





Comments


Popular Led Zeppelin tabs & chords
Four Sticks Bass Tabs
Four Sticks 1 Drum Tabs
Lemon Song 1 Drum Tabs
Houses Of The Holy Tabs
In The Evening 1 Tabs
Led Zep I Tabs
Living Loving Maid Tabs
Nobodys Fault But Mine 2 Tabs
Since Ive Been Loving You Complete Tabs
The Rain Song 1 Tabs


Song lyrics



↑ Back to top | Tablatures and chords are parodies/interpretations of the original songs. You may use it for private study, scholarship, research or language learning purposes only
© 2014 AZChords.com Contact us | Privacy policy | DMCA | Add/correct tabs | Request tabs | Top 50 tabs