>
 >
Since Ive Been Loving You Live 1

Since Ive Been Loving You Live 1 Guitar Tabs

Led Zeppelin - Since Ive Been Loving You Live 1 chords, tabs, tablatures, lyrics

Guitar lessons | Add/correct | Request | Top 50 tabs Artists:  A B C D E F G H I J K L M N O P Q R S T U V W X Y Z 0-9

Since Ive Been Loving You Live 1 Guitar Tabs – Led Zeppelin

CD, Sheet music, Poster

Do you like Since Ive Been Loving You Live 1? Share with your friends now
TabsTabs v2Tabs v3
Since I've Been Loving You
Live as heard on How The West Was Won


0:00
|----8-----------------------11-10-8---10-8-------------|
|--8---11-8-11b13-----11b13----------9------9-9-8-8-----|
|-------------------------------------------------------|
|-------------------------------------------------------|
|-------------------------------------------------------|
|-------------------------------------------------------|

0:07
|-------------------------------------------------------|
|-------------------------------------------------------|
|10-10-8-8----------------------------------------------|
|----------10-10-8-8------------------------------------|
|--------------------11-11-10h11p10-11-13--11h13p11\8---|
|-------------------------------------------------------|

0:10
|--------------------------------------------------------|
|--------------------------------------------------------|
|------------------------------------------------------8-|
|-----------------------------------1-----------8-9-10---|
|--8\6/8---8\10/8--------------1-3----1-3-3--10----------|
|-----------------1/3\1--1-2-3---------------------------|

0:18
|--------------------8----------------------------------|
|-----------------11---11-------------------------------|
|-----------10b12---------10b12---10b12-10--8h10-8h10-8-|
|-8-10-10-----------------------------------------------|
|-------------------------------------------------------|
|-------------------------------------------------------|

0:26
|-11-8--11-10-8---10-8-8--------------------------------|
|---------------9--------9-9-8-8------------------------|
|--------------------------------10-10-8h10p8----8----8-|
|---------------------------------------------10---10---|
|-------------------------------------------------------|
|-------------------------------------------------------|

0:30
|------------------------------------13-15-16b17-16-----|
|----8-9-11b13-11-9-11-9h11p9-9-----x-------------------|
|-10-------------------------------x--------------------|
|---------------------------------x---------------------|
|-------------------------------------------------------|
|-------------------------------------------------------|

0:36
|--12----12---------------------------------------------|
|-----16----16-15-13-16-15-13------13-15-16-15h16p15----|
|--------------------------------x----------------------|
|-------------------------------x-----------------------|
|-------------------------------------------------------|
|-------------------------------------------------------|

0:41
|-------------------------------------------------------|
|-13-15-------------------------------------------------|
|---------------------8-10-8-7-8-7----7-----------------|
|------------12-10-12--------------10---10-8-10-8----8--|
|----------x--------------------------------------10----|
|---------x---------------------------------------------|

0:44
|-----------------------------------------11-------------|
|--------------------------------------11----11-13-13-13-|
|----------------------8-8-8-----10/12-------------------|
|----------------------------10--------------------------|
|--10-8-6-8-6-----8/10-----------------------------------|
|-------------8-8----------------------------------------|

0:48
|--11----13b15----------------------------------------13-|
|-----13-------13----8h11p8----8h11p8----8-------8-11----|
|---------------------------10--------10---10b12---------|
|--------------------------------------------------------|
|--------------------------------------------------------|
|--------------------------------------------------------|

0:52
|--13b15-13b15-13b15-13b15b13------------11-------11----|
|-----------------------------9-11-11b13----11b13----11-|
|-------------------------------------------------------|
|-------------------------------------------------------|
|-------------------------------------------------------|
|-------------------------------------------------------|

1:00
|--13b15--13b15--13--13b15-11-------------17-15---------|
|------------------------------13---15b17-------16-15---|
|-------------------------------------------------------|
|-------------------------------------------------------|
|-------------------------------------------------------|
|-------------------------------------------------------|

1:07
|-----------------------18p15-15----18b20-18b20-------18-|
|--16-15----------15-16----------16-------------18b20----|
|--------17-17-------------------------------------------|
|--------------------------------------------------------|
|--------------------------------------------------------|
|--------------------------------------------------------|

1:11
|--------18-------18-------------18----------------------|
|--18b20----18b20----18b20-18b20----18b20-18b20-18-16----|
|-----------------------------------------------------17-|
|--------------------------------------------------------|
|--------------------------------------------------------|
|--------------------------------------------------------|

..Every night..                     ...Let me tell ya...
|--------------------------11------------11-------------|
|--13b16-13b16-13-11-13-13----13-13---------13-13-13----|
|-------------------------------------------------------|
|-------------------------------------------------------|
|-------------------------------------------------------|
|-------------------------------------------------------|

 ...Really...               ...That's right...
|--13----------13b15----------16b18----------18b20r18---|
|-----13-13-13-------13-13-13-------16-16-16------------|
|-------------------------------------------------------|
|-------------------------------------------------------|
|-------------------------------------------------------|
|-------------------------------------------------------|

1:40
|-----15-15-15--17-17h18p17--15h16p15-15h16p15----------|
|----------------------------------------------18-18----|
|-------------------------------------------------------|
|-------------------------------------------------------|
|-------------------------------------------------------|
|-------------------------------------------------------|

1:45                                    ...Could yeah...
|---------------------------------13---------------------|
|--13b16-13b16-13-11-13-13--11-13----13------------------|
|--------------------------------------------------------|
|----------------------------------------6-6-8-8-8/10-10-|
|--------------------------------------------------------|
|----------------------------------------4-4-6-6-6/8--8--|

1:53            ...Oh I love you mama...
|-------------------------------------------------------|
|---------------------------8---------------------------|
|---------------------------8---------------------------|
|--8-6-6-6/8\6------------8---10-8-10-10-10-------8-10--|
|--------------------8h10--------------------8-10-------|
|--6-4-4-4/6\4--8h11------------------------------------|

1:57                        ...Oh, little girl...
|------------------------------------------10----10------|
|--8----8-------------------------------11---11-----11---|
|--8----8----8----10b12-10b12-8-----/12---------12----12-|
|----10---10---10---------------10-----------------------|
|--------------------------------------------------------|
|--------------------------------------------------------|

2:03                                          ...Baby...
|--10------10----10------10------11---------------------|
|-----11------11----11------11------13------------------|
|--------12------------12------12------12\----7---------|
|---------------------------------------------5---------|
|-------------------------------------------------------|
|-------------------------------------------------------|

2:08 ...Since...
|-------------------------------------------------------|
|-------------------------------------------------------|
|------------------------------------------------5--4---|
|----------5p3p0--5-5-5----6-4-6--5--3--5--3--5---------|
|-----------------------------------------------6--5----|
|-----------------------3/4-6-4-3--1--3--1--3-----------|

2:21
|-------------------------------------------------------|
|-------------------------------------------------------|
|---5/7\5/7\5-------5---5b7r5-----5---5b7r5-------------|
|--------------5--4---4-------4-3---3-------------------|
|--6-/8\6/8\6-----------------------------------0-1-2-3-|
|--------------6--5---5-------5-4---4-------/12\--------|

2:35             ..Tell me tell me tell me...
|-------------------------------------------------------|
|-------------------------------------------------------|
|--10b12r10-8-10-8--10b12r10p8----8--10b12r10p8----8----|
|------------------------------10---------------10------|
|-------------------------------------------------------|
|-------------------------------------------------------|

2:38                         ...No good...
|-------------------------------------------------------|
|-------------------------------------------------------|
|--10b12r10p8----8--10b12r10-8--------------------------|
|-------------10------------------------3/5\3-----------|
|-------------------------------------------------------|
|---------------------------------------------1/3\1-----|

2:44               ..Oh...Ow...Ahh..Best..
|------------------10---11---13---15----------10------10-|
|---------------8--10---11---13---15--------10-------10--|
|--/10\---------8---x----x----x----x----10b12---10b12----|
|--/10\---8-10--x----------------------------------------|
|--------------------------------------------------------|
|--------------------------------------------------------|

2:55
|---------------10------10--11b13-11-8----11-8\---------|
|--------------10------10--------------11---------------|
|----------10b12---10b12--------------------------------|
|-------------------------------------------------------|
|-------------------------------------------------------|
|-------------------------------------------------------|

3:01       ...Seven seven seven seven seven...
|-----11------11------11------11------11------11------11-|
|11b13---11b13---11b13---11b13---11b13---11b13---11b13---|
|--------------------------------------------------------|
|--------------------------------------------------------|
|--------------------------------------------------------|
|--------------------------------------------------------|

3:07             ...To eleven every night it
|--------------------------------------------------------|
|--11b13-11-8-11-8-11-8----8-----------------------------|
|-----------------------10---10-8----8---------8-10-8-10-|
|---------------------------------10---10-8-10-----------|
|--------------------------------------------------------|
|--------------------------------------------------------|

3:09            really really makes it a drag...
|-------------------------8------------------------------|
|-----------------------8---11-8-------------------------|
|--8-10---10---10-10b12----------10-8-10-8---8-----------|
|-------8----8-----------------------------10--10--------|
|-------------------------------------------------8h10p8-|
|--------------------------------------------------------|

3:13        ..Oh..    ..Oh..   ..Oh..  ..Oh..
|-------------------------------------------------------|
|-------------------------------------------------------|
|-------------------------------------------------------|
|-------------------------------------------------------|
|--6-6h8-6-------6h8-6----6h8-6----6h8-6----6h8-6h8-6h8-|
|----------8---8-------8-8------8-8------8-8------------|

3:21                        ...Baby baby baby baby...
|-------------------------------------------------------|
|-------------------------------------------------------|
|--------------------7----------------------------------|
|--------------------5---------5-5-5-5-5-5---5-3--------|
|--6h8-6h8----6-8-0-------------------------------------|
|-------------------------------------------------------|

3:30  ..My worried mind..
|--------------------------------------------------------|
|--------------------------------------------------------|
|-----------------------5-5-5-5-5-5-5-5-4-4-4-4-4-4-5/7\-|
|----6-4-6-5-3-5-3-5-------------------------------------|
|----------------------6-6-6-6-6-6-6-6-5-5-5-5-5-5-6/8\6-|
|----4-6-4-3-1-3-1-3-------------------------------------|

3:38  ..For 5 Minutes..
|--------------------------------------------------------|
|--------------------------------------------------------|
|5-7-5-5-5-5-5-5-------------------5b7r5-------5b7-5-5-5-|
|----------------5-5-5-5-5-5-4-4-4-------3-3-3-----------|
|-8-6-6-6-6-6-6------------------------------------------|
|---------------6-6-6-6-6-6-5-5-5-------4-4-4------------|

SOLO
|--------------------------------------------11----11----|
|-----------------------------------------11----13----13-|
|--------------------8-10-8-10-8----10/12----------------|
|---------------8/10-------------10----------------------|
|--6--8-6-8-6--------------------------------------------|
|-------------8------------------------------------------|

|-------------------------------------------------------|
|--11-8-11-8--------------------------------------------|
|------------10-8-10-8-10-8---------8-10-8-10-8----8----|
|---------------------------10-8/10-------------10------|
|-------------------------------------------------------|
|-------------------------------------------------------|

|--------8---------------------11-13b15-13-11----11-----|
|----------11-8----------11/13----------------13----13--|
|--10b12--------10-10b12--------------------------------|
|-------------------------------------------------------|
|-------------------------------------------------------|
|-------------------------------------------------------|

|--11---------------------------------------------------|
|-----13------------------------------8-----------------|
|--------12/10-8-10-8-10-8----8-10-11---11-10-8-10-8----|
|--------------------------10------------------------10-|
|-------------------------------------------------------|
|-------------------------------------------------------|

|-------------------------------------------------------|
|-------------------------------------------------------|
|-------------------------------------------8-10-8------|
|--8-10-8----8-10-8----------------------10--------10---|
|---------10--------10-9-8----8-10-8-8/10---------------|
|--------------------------11---------------------------|

|-------11-8----13-8------------------------------------|
|------------11------11---------------------------------|
|-10b12-----------------11-10---8-10----8----10b12r10p8-|
|-----------------------------10-----10---10------------|
|-------------------------------------------------------|
|-------------------------------------------------------|

|-------------------------------------------------------|
|-----10b12r10------10b12r10----------------------------|
|-----10b12r10p8----10b12r10p8----10-8-10-8----8--------|
|--10------------10------------10-----------10---10-----|
|-------------------------------------------------------|
|-------------------------------------------------------|

|------------------11-8----8----------------------------|
|--------8-11-8---------11---11-------------------------|
|--10b12--------10--------------10b12-10-8-10-8----8----|
|-----------------------------------------------10---10-|
|-------------------------------------------------------|
|-------------------------------------------------------|

|-----------11-------11----13b15-13b15-13-11-13-13b15---|
|--------11----13-13----13------------------------------|
|--10/12------------------------------------------------|
|-------------------------------------------------------|
|-------------------------------------------------------|
|-------------------------------------------------------|

|--11--------13-15-16-15-16--x--------------------------|
|-----13----x-----------------x---------9-11-9-11-9-----|
|----------x-------------------12-10-12-------------12--|
|---------x---------------------------------------------|
|-------------------------------------------------------|
|-------------------------------------------------------|

|----------------11-13-11-13-11-------11-------------11-|
|--------9-11b13----------------13-11----13-13-11-13----|
|--10-12------------------------------------------------|
|-------------------------------------------------------|
|-------------------------------------------------------|
|-------------------------------------------------------|

|--------------------------------------------18b20-16----|
|--13-11b13--9h11p8-8-9-11-9-11p9p8----8--------------18-|
|-----------------------------------10---10--------------|
|--------------------------------------------------------|
|--------------------------------------------------------|
|--------------------------------------------------------|

|-----------16------------------8------11-8-11-8--------|
|--16b18-18----16-15-----------8--11-8-----------8-11-8-|
|--------------------17\--10b12-------------------------|
|-------------------------------------------------------|
|-------------------------------------------------------|
|-------------------------------------------------------|

|--------------------------------------------------------|
|--------------------------------------------------------|
|--10-8-10-8----8------------------------8-------------8-|
|------------10---10-8----8/10-8---------8-10-10-10-10-8-|
|----------------------10--------8h10-10---------10-10---|
|--------------------------------------------------------|

|--------------------------------------------------------|
|-------------------------------------------------8h10p8-|
|----------8---------8/10-8/10-8-10------------10--------|
|--10---10-8-10---10-8/10-8/10-8-10-10-10-10-------------|
|--10---10---10---10----------------10-10-10-------------|
|--------------------------------------------------------|

|---------------------13-13b15-13-12-10----12-10--------|
|--------8-------8-11-------------------11-------11-11--|
|--10b12-0-10b12----------------------------------------|
|-------------------------------------------------------|
|-------------------------------------------------------|
|-------------------------------------------------------|

|-----------------------------------11-13-11-13-11-------|
|--11-11-10-11-10--------9-11-12b13----------------12b13-|
|-----------------12-12----------------------------------|
|--------------------------------------------------------|
|--------------------------------------------------------|
|--------------------------------------------------------|

|--11-13-11-13-11-------11-13-11-13-11-------11-13-11-13-|
|-----------------12b13----------------12b13-------------|
|--------------------------------------------------------|
|--------------------------------------------------------|
|--------------------------------------------------------|
|--------------------------------------------------------|

|--11-13-16b18r16----18-15-18b20-18b20-18-15-------18---|
|-----------------16-------------------------18b20------|
|-------------------------------------------------------|
|-------------------------------------------------------|
|-------------------------------------------------------|
|-------------------------------------------------------|

|-----------------------------------18-18-18-15h18p15-15-|
|--18b20-18-16-18-15h16p15----15-16----------------------|
|--------------------------17----------------------------|
|--------------------------------------------------------|
|--------------------------------------------------------|
|--------------------------------------------------------|

|--------------------------18-------18-------18------18-|
|--16-15-------16-18-18b20----18b20----18b20---18b20----|
|--------17-17------------------------------------------|
|-------------------------------------------------------|
|-------------------------------------------------------|
|-------------------------------------------------------|

|--------18-------18-------18-------18------------------|
|--18b20----18b20----18b20----18b20----18b20r18b20-16\--|
|-------------------------------------------------------|
|-------------------------------------------------------|
|-------------------------------------------------------|
|-------------------------------------------------------|

|-------------------------------------------------------|
|-x-----------------------------------------------------|
|---x---------------------------------------------------|
|-----x-------------------------------------------------|
|-------x-----------------------------------------------|
|---------x---------------------------------------------|

5:03  Oooh.. cryin' oh..
|-------------------------------------------------------|
|-------------------------------------------------------|
|---------------------3-5b7-5b7-5-3-5p3-----------------|
|-------------------5-------------------5-5-------------|
|---------------------------------------------3p1-------|
|-------------------------------------------3-----3-3-3-|

5:16        ..Tears fell like rain..   ..Somebody hear..
|-------------------------------------------------------|
|-------------------------------------------------------|
|------------------------------------8--8-8-8/12-12-10--|
|------------------------------------8--8-8-8/12-12-10--|
|----1---1-3--------------------------------------------|
|--3---3------------------------------------------------|

5:27   ..Them callin'..            ..Please please ohh..
|-------------------------------------------------------|
|-------------------------------------------------------|
|--8/12--12\10--10\8--8/10--10\7-7--------5-5-5---5-5-5-|
|--8/12--12\10--10\8--8/10--10\7-7----------------------|
|----------------------------------------6-6-6---6-6-6--|
|-------------------------------------------------------|

5:36
|--------------------------------------------------------|
|--------------------------------------------------------|
|---/5-5-5-5-5-5-5-5-4-4-4-4-4-5-5/7\5-5/7\5-5-5-5-5-----|
|----------------------------------------------------5-5-|
|--/6-6-6-6-6-6-6-6-5-5-5-5-5-6-6/8\6-6/8\6-6-6-6-6------|
|---------------------------------------------------6-6--|

5:42
|-------------------------------------------------------|
|-------------------------------------------------------|
|--------------------5---5b7r5-----5---5b7r5--/15\------|
|-------5-5-5-5-5--4---4-------4-3---3------------------|
|-------------------------------------------------------|
|------6-6-6-6-6---5---5-------5-4---4------------------|

5:48 ..Rememeber mama when I knocked upon your door..
|-----8------8------10------10------11------11------10---|
|-------8------8-------8-------8-------8-------8-------8-|
|--------------------------------------------------------|
|-/10-----10-----10------10------10------10------10------|
|--------------------------------------------------------|
|--------------------------------------------------------|

5:54     ..You had the nerve to tell me you didn't..
|-----8\------------------------------------------------|
|-------------------------------------------------------|
|----------10----10----12---12---13---13---12---10------|
|--10--------10----10----10---10---10---10---10---10----|
|---------8-----8-----8----8----8----8----8----8----10--|
|-------------------------------------------------------|

6:01  ..Open my front door, hear my back door slam..
|---8------8------10------10------11------11------10----|
|-----8------8-------8-------8-------8-------8-------8--|
|-------------------------------------------------------|
|-------10-----10------10------10------10------10-------|
|-------------------------------------------------------|
|-------------------------------------------------------|

6:07           ..Think I got one of them..
|---x----x---13----11---13----11----11----11---11-------|
|---x----x-----8-----8----8-----8-----8-----8----8------|
|----x--x-----------------------------------------------|
|---------------10----10----10---10----10----10---10----|
|-------------------------------------------------------|
|-------------------------------------------------------|

6:12   ..I've been workin' workin' workin' from seven..
|-------------------------------------------------------|
|-------------------------------------------------------|
|-------10----10----12---12---13---13---12---10---------|
|---------10----10----10---10---10---10---10---10-------|
|------8-----8-----8----8----8----8----8----8----10-----|
|-------------------------------------------------------|

6:19          ..To eleven every night..
|-------------------------------------------------------|
|-------------------------------------------------------|
|-------13----13----15---13---12---13---12---10---------|
|---------10----10----10---10---10---10---10---10-------|
|------8-----8-----8----8----8----8----8----8----10-----|
|-------------------------------------------------------|

6:25---------------------------------------------------|          ..Ohh oh-oh-oh, ohh oh-oh-oh..
|--8------8------10------10------11------11------10----|
|----8------8-------8-------8-------8-------8-------8--|
|------------------------------------------------------|
|------10-----10------10------10------10------10-------|
|------------------------------------------------------|
|------------------------------------------------------|

6:32           ..It jus' ain't right..
|--------------------10-------------------10------------|
|--------10-------10----------10-------10----------10---|
|--10b12----10b12-------10b12----10b12-------10b12------|
|-------------------------------------------------------|
|-------------------------------------------------------|
|-------------------------------------------------------|

6:33
|--------------------10-------10----------10-------10---|
|--------10-------10-------------------10---------------|
|--10b12----10b12-------10b12----10b12-------10b12------|
|-------------------------------------------------------|
|-------------------------------------------------------|
|-------------------------------------------------------|

6:35
|--------------------10-------10----------10------------|
|--------10-------10-------------------10----------10---|
|--10b12----10b12-------10b12----10b12-------10b12------|
|-------------------------------------------------------|
|-------------------------------------------------------|
|-------------------------------------------------------|

6:38
|-------------------------------------------------------|
|-------------------------------------------------------|
|---5--7---------------------------------------------/5-|
|---3--5--5-5-5-5p3p0-5p3p0-5p3p0-6-6/8-6--5-3-5-3-5----|
|----------------------------------------------------/6-|
|---------------------------------4-4/6-4-3-1-3-1-3-----|
             M
6:52 ..Don't wanna lose it, oh no no no..
|---------------------------------------8-8-8-8-6-6-4-6--|
|--------------------------------------------------------|
|-4-/5-----5---5b7r5-----5---5b7r5-------8-8-8-8-6-6-5-6-|
|------5-4---4-------4-3---3-----------------------------|
|-5-/6---------------------------------------------------|
|------6-5---5-------5-4---4-----------------------------|
                                 J
7:06    ..Don't make me, don't make me lose..
|--8-6-4-6-8-6-4-6-8-6-4-3-1-3-1-1-3-4-3-1-3-1-1-1------|
|-------------------------------------------------------|
|---8-6-5-6-8-6-5-6-8-6-5-3-1-3-1-1-3-5-3-1-3-1-1-1-----|
|-------------------------------------------------------|
|-------------------------------------------------------|
|-------------------------------------------------------|
                     S
7:13   ..My worried mind
|--------------------------------------------------------|
|--------------------------------------------------------|
|-------------/5-4-5/7\5/7\5-----5---5b7r5-----5---5b7r5-|
|----------------------------5-4---4-------4-3---3-------|
|----1---1----/6-4-6/8\6/8\6-----------------------------|
|1-3---3---------------------6-5---5-------5-4---4-------|

7:36                                                8:01
|-------------------------------------------------------|
|-------------------------------------------------------|
|--8\7-/8\7/8\7/8\7/8\7/8\7/8\7-------------------------|
|--8\7-/8\7/8\7/8\7/8\7/8\7/8\7-------------------------|
|-------------------------------------------------------|
|-------------------------------------------------------|





Comments


Popular Led Zeppelin tabs & chords
Dancin Days Bass Tabs
Living Loving Maid Drum Tabs
Custard Pie 1 Tabs
Dazed And Confused Live Tabs
Gallows Pole 4 Tabs
Over The Hills And Far Away 2 Tabs
The Girl I Love She Got Long Black Wavy Hair 3 Tabs
The Ocean 2 Tabs
Living Loving Maid Ukulele
Rock And Roll Ukulele


Song lyrics



↑ Back to top | Tablatures and chords are parodies/interpretations of the original songs. You may use it for private study, scholarship, research or language learning purposes only
© 2014 AZChords.com Contact us | Privacy policy | DMCA | Add/correct tabs | Request tabs | Top 50 tabs