» » »

Led Zeppelin, Ramble On Tabs (ver.5)

Artists:  A B C D E F G H I J K L M N O P Q R S T U V W X Y Z # 

Ramble On Tabs (ver.5)

Led Zeppelin Tabs
 Rating:
4/5 (4 votes)
Ramble On lessons Tabs too difficult? Try these video lessons and learn fast
1
                The main acoustic riff is Riff.1.

Riff.1
E-|---------------0----------|-----0----------------------0-----------------|
B-|--9---------0--0----------|--5--5----5--5--5--5--5--5--5--------0--------|
G-|--9---9--9--7--9----------|--6--6h7--7--7--7--7--7--7--6--6--6--6--------|
D-|--9---9--9--7--7---0--0---|--7--7----7--7--7--7--7--7--7--7--7--5--7-----|
A-|--7---7--7--7--9---0--0---|--0--0----0-----0--0--0--0--------0-----7-----|
E-|---------0------------0---|----------------------------------------0-----|
                                                                               
Riff.1
E-|--------------0---------0--------------|----0----------------------------|
B-|--------9--9--0---------0--------------|----5----5-5-5---5---5--5--5----5|
G-|--7/9---9--9--7--7-7----9--9-9-9-------|-6--6h7--7-7-7-7-6h7-7--7--6h7--7|
D-|--------9--9--7--7-7-7--7--7-7-7--0--0-|-7--7----7-7-7-7-7---7--7--7----7|
A-|--9/11--7--7--7---------9---------0--0-|-0-----------0---0---0--0--0----0|
E-|-----------0-------------------------0-|---------------------------------|
                                                                             Riff.2 (acoustic)
E, F#m7, G#m7 | A, F#m7, E.  
                                                                             
Riff.2 (electric)
E-|-0---0-----0------------|-------------0---0---------|-0--------0---------|
B-|-0----0-0--0---0-0----0-|-0----0--0---0-0---0-------|---------0--0--0-0-0|
G-|-11-----9--9-----9h11---|-7p6-----6p4---------------|b11(13)p9---9--9h11-|
D-|------------------------|---------------------7p6---|--------------------|
A-|------------------------|-------------------------7-|--------------------|
E-|------------------------|---------------------------|--------------------|

Riff.2 (acoustic)                 
E-|-4---------------------------|--0----------------0-----------------------|
B-|----------2------7-----------|--5-----------2----0-----------------------|
G-|-1--------2------4--4--4-----|--6-----------2----1-----------------------|
D-|----------2------4--4--4--0--|--7--7--------2----2-----------------------|
A-|-2--2-----4------6--6--------|--0--0-0--7---4----2-----------------------|
E-|-0-----0--2--0---4-----------|----------0---2----0-----------------------|
                                                                               


Riff.3 (electric)
E-|--------------------|-----------------------------2---2--3---------------|
B-|-9------------------|--3/5-----5--5\3---3--3------3---3--3---------------|
G-|-9--9--9--7--9\-----|-------------------------0-------2------------------|
D-|-9--9--9--7--7\-----|--5/7--------7\5------5--0--------------------------|
A-|-7--7--7--7--9\-----|----------------------------------------------------|
E-|--------------------|----------------------------------------------------|
                                                                               
Riff.3 (acoustic)
E-|--------------------|-------0----------0---0----------2--3---------------|
B-|--------------------|----5--5--5--5\3--3---3----------3--3---------------|
G-|-9--9--9--7--9\-----|-------0--0-------0---0--0-0-----2--0---------------|
D-|-9--9--9--7--7\-----|----7--------7\5---------0-0-----0------------------|
A-|-7--------7--9\-----|----------------------------------------------------|
E-|--------------------|----------------------------------------------------|
                                                                               

Solo.1 (gtr1)                                                                               
E-|---------|-----------------------------12--------------------------------|
B-|-15------|-15p14h15--15p14h15-15p14h15-----15-14-15----------------------|
G-|---------|---------------------------------------------------------------|
D-|---------|---------------------------------------------------------------|
A-|---------|---------------------------------------------------------------|
E-|---------|---------------------------------------------------------------|
                                                                               
Solo.1 (gtr2)                                                                               
E-|---------|---------------------------------------------------------------|
B-|-12------|-12p10h12--12p10h10-12p10h12-14--12-10-12----------------------|
G-|---------|---------------------------------------------------------------|
D-|---------|---------------------------------------------------------------|
A-|---------|---------------------------------------------------------------|
E-|---------|---------------------------------------------------------------|
                                                                               


Solo.2 (gtr1)
E-|-12-------------12------------12------|-12-------------------------------|
B-|---15-14-12-------15-14-12------15-14-|---15-14-12---12-14--12-14--12-14-|
G-|------------14-------------14----------|------------14-------------------|
D-|---------------------------------------|---------------------------------|
A-|---------------------------------------|---------------------------------|
E-|---------------------------------------|---------------------------------|
                                                                               
Solo.2 (gtr2)                                                                               
E-|-------------------------------------|-----------------------------------|
B-|-14p12---------14p12---------14p12---|-14p12-----------------------------|
G-|------14p11---------14p11---------14-|------14p11----11-14--11-14--11-14-|
D-|-----------14------------14----------|-----------14----------------------|
A-|-------------------------------------|-----------------------------------|
E-|-------------------------------------|-----------------------------------|
                                                                               


Riff.4 (electric)
E-|------------------------------|------------------------------------------|
B-|------------------------------|------------------------------------------|
G-|--------9--9--9---------------|------9-9--9--7---7-7-7-------------------|
D-|------9-9--9--9-------9-9-----|-9h11-----11--7h9-----9--6-7--------------|
A-|-9h11-----11--9--9p11-----11--|------------------------------------------|
E-|------------------------------|------------------------------------------|
            
Submit corrections

comments powered by Disqus
↑ Back to top | Led Zeppelin Tabs for Ramble On. Lyrics for acoustic guitar and electric guitar. 1 Tablatures and chords are parodies/interpretations of the original songs. You may use it for private study, scholarship, research or language learning purposes only