>
 >
Ozone Baby

Ozone Baby Bass Tabs

Led Zeppelin - Ozone Baby chords, tabs, tablatures, lyrics

Guitar lessons | Add/correct | Request | Top 50 tabs Artists:  A B C D E F G H I J K L M N O P Q R S T U V W X Y Z 0-9

Ozone Baby Bass Tabs – Led Zeppelin

CD, Sheet music, Poster

Do you like Ozone Baby? Share with your friends now
Bass TabsTabs
Ozone Baby
Led Zeppelin

G|----------------|----------------|----------------|----------------|
D|----------------|----------0-2-0-|--0-0-0-0-0-0-0-|0---0-----------|
A|----------------|--0-2-3---------|----------------|----------------|
E|----------0-2-3-|----------------|----------------|----------0-2-3-|

G|----------------|----------------|----------------|----------------|
D|----------0-2-0-|--0-0---0---0---|0-0-------------|----------0-2-0-|
A|--0-2-3---------|----------------|----------------|--0-2-3---------|
E|----------------|----------------|----------0-2-3-|----------------|

G|--5-7---5-7-5-7-|7-----7---7-7---|----------------|5---5-4-2-------|
D|----------------|----------------|----0---0-0-0---|----------------|
A|------5---------|----------------|2-3-------------|--5-------------|
E|----------------|----------------|----------------|----------0-2-3-|

G|----------------|--5-7---5-7-5-7-|7-----7---7-7---|----------------|
D|----------0-2-0-|----------------|----------------|----------5-3---|
A|--0-2-3---------|------5---------|----------------|2-3-5---5-----5-|
E|----------------|----------------|----------------|----------------|

G|--7-5-4-2-------|----------------|----------------|----------------|
D|------------0---|2---------------|----------------|2---------------|
A|5---------------|----------0-2-34|5-555-----555---|----------0-2-34|
E|----------------|--0-0-2-3-------|------555-----5-|--3-0-2-3-------|

G|----------------|----------------|----------------|----------------|
D|----------------|2---------------|0-0-0-----0-0---|2---------------|
A|5-555-----555---|----------0-2-34|------0-0-----0-|--2---------2-3-|
E|------555-----5-|--3-0-2-3-------|----------------|----0-2-3-0-----|

G|----------------|----------------|----------------|--5-7---5-7-5-7-|
D|0-0-0-0-0-0-0-0-|----0-----------|----------0-2-0-|----------------|
A|----------------|0-3-------------|--0-2-3---------|------5---------|
E|----------------|----------0-2-3-|----------------|----------------|

G|7-----7---7-7---|----------------|5---5-4---------|----------------|
D|----------------|----0---0-0-0---|--------5-------|----------0-2-0-|
A|----------------|2-3-------------|--5-------------|--0-2-3---------|
E|----------------|----------------|----------0-2-3-|----------------|

G|--5-7---5-7-5-7-|7-----7---7-7---|----------------|--7-5-4---------|
D|----------------|----------------|----0-----5-3---|--------7-------|
A|------5---------|----------------|2-3-----5-----5-|5-----------5---|
E|----------------|----------------|----------------|----------------|

G|----------------|----------------|----------------|----------------|
D|2---------------|0-000-----000---|2---------------|0-000-----000---|
A|----------0-2-34|------000-----0-|----------0-2-34|------000-----0-|
E|--0-0-2-3-------|----------------|--3-0-2-3-------|----------------|

G|----------------|----------------|----------------|----------------|
D|2---------------|0-0-0-----0-0---|2---------------|0-0-0-0-0-0-0-0-|
A|----------0-2-34|------0-0-----0-|--2---------2-3-|----------------|
E|--3-0-2-3-------|----------------|----0-2-3-0-----|----------------|

G|----------------|----------------|----------------|------0-----0---|
D|----0-----------|----------------|--------------0-|--2-3---------3-|
A|0-4-------------|----------------|------------0---|----------------|
E|----------------|----------------|------0-2-3-----|----------------|

G|----------------|------0---000---|----------------|------0---0-2-2-|
D|----2-3-------0-|--2-3-----------|3---2---------0-|--2-3-----------|
A|------------0---|----------------|------------0---|----------------|
E|--------0-2-----|----------------|--------0-2-----|----------------|

G|4-7---9---------|------0---0-0---|----------------|------0---0-0---|
D|--------------0-|--2-3---------3-|----2-3-------0-|--2-3---------3-|
A|------------0---|----------------|------------0---|----------------|
E|--------0-2-----|----------------|--------0-2-----|----------------|

  2/4 time 4/4 time
G|--------|----------------|--7-9---9-------|----9-----------|
D|--------|----------0-----|----------------|----------------|
A|--------|--0-2-3-----3-0-|------------0---|0---0-------2-0-|
E|--0-2-3-|----------------|----------------|----------3-----|

G|--7-9---9-------|----------------|----9-9-9-------|----------------|
D|----------------|----------------|----------------|----------------|
A|------------0---|0-0-0-0-0---2-0-|----0-0-0---0---|0-0-0-0-0---2-0-|
E|----------------|----------3-----|--3-------------|----------3-----|

G|----9---9---9---|----------------|------------9---|9---------------|
D|----------------|----------------|----------------|----------------|
A|----0---0---0---|0-0-0-0-0---2-0-|----0---0---0---|0---0-------2-0-|
E|--3-------------|----------3-----|--3-------------|----------3-----|

G|----9---9---9---|----------------|----9---9---9---|----------------|
D|----------------|----------------|----------------|----------------|
A|----0---0---0---|0-0-0-0-0---2-0-|----0---0---0---|0-----0-----2-0-|
E|--3-------------|----------3-----|--3-------------|--3-3-----3-----|

G|----9---9---9---|----------------|----------------|----------------|
D|----------------|----------------|2---------------|0-0-0-----0-0---|
A|----0---0---0---|0---0-0---0-0-0-|----------0-2-34|------0-0-----0-|
E|--3-------------|--3-------------|--3-0-2-3-------|----------------|

G|----------------|----3---7---5---|----------------|----------------|
D|2---------------|0-0---0---0---0-|2---------------|0-000-----000---|
A|----------0-2-34|----------------|----------0-2-34|------000-----0-|
E|--3-0-2-3-------|----------------|--0-0-2-3-------|----------------|

G|----------------|----------------|----------------|----------------|
D|2---------------|0-0-0-0-0-0-0-0-|----0-----------|----------0-----|
A|----------0-2-34|----------------|0-4-------------|--0-2-3-----3-0-|
E|--0-0-2-3-------|----------------|----------0-2-3-|----------------|

G|--7-9---9-------|----9-----------|--7-9---9-------|--7-9---9-------|
D|----------------|----------------|----------------|----------------|
A|------------0---|0---0-------2-0-|------------0---|0-----------0---|
E|----------------|----------3-----|----------------|----------------|

G|----------------|--7-9---9-------|----9-----------|--7-9---9-------|
D|----------0-----|----------------|----------------|----------------|
A|--0-2-3-----3-0-|------------0---|0---0-------2-0-|------------0---|
E|3---------------|----------------|----------3-----|----------------|

G|----------------|--7-9---9-------|----9-----------|--7-9---9-------|
D|----------0-----|----------------|----------------|----------------|
A|--0-2-3-----3-0-|------------0---|0---0-------2-0-|------------0---|
E|3---------------|----------------|----------3-----|----------------|

G|----------------|--7-9---9-------|----9-----------|----9-9-9-9-9-9-|
D|----------0-----|----------------|----------------|----------------|
A|--0-2-3-----3-0-|------------0---|0---0-------2-0-|--0-0-0-0-0-0-0-|
E|3---------------|----------------|----------3-----|----------------|

G|----------------|----------------|----------------|----------------|
D|2---------------|0-0-0-----000---|2---------------|0-0-0-----000---|
A|----------0-2-34|------0-0-----0-|----------0-2-34|------000-----0-|
E|--3-0-2-3-------|----------------|--3-0-2-3-------|----------------|

G|----------------|----------------|----------------|----------------|
D|2---------------|0-0-0-----0-0---|2---------------|0-0-0-0-0-0-0-0-|
A|----------0-2-34|------0-0-----0-|------------2-3-|----------------|
E|--3-0-2-3-------|----------------|--3-0-2-3-0-----|----------------|

G|----------------|----------------|----------------|----------------|
D|0---0-----------|----0-----------|----0-----------|----0-----------|
A|--4-------------|0-4-------------|0-4-------------|0-4-------------|
E|----------------|----------------|----------------|----------------|

G|----------------|----------------|----------------|----------------|
D|2---------------|0-0-0-----000---|2---------------|0-0-0-----000---|
A|----------0-2-34|------0-0-----0-|----------0-2-34|------000-----0-|
E|--3-0-2-3-------|----------------|--3-0-2-3-------|----------------|

G|----------------|----------------|----------------|----------------|
D|2---------------|0-0-0-----0-0---|2---------------|----0-----------|
A|----------0-2-34|------0-0-----0-|------------2-3-|0-4-------------|
E|--3-0-2-3-------|----------------|--3-0-2-3-0-----|----------0-2-3-|

G|----------------|----------------|
D|----------0-2---|----------------|
A|--0-2-3---------|0---------------|
E|----------------|----------------|

Led Zeppelin Is #1 Band





Comments


Popular Led Zeppelin tabs & chords
Bron Y Aur Stomp Bass Tabs
Street Corner Girl Chords
Bring It On Home Drum Tabs
Communication Breakdown 4 Tabs
Dazed And Confused Live Tabs
I Cant Quit You Tabs
Kashmir Tabs
Night Flight Tabs
Stairway Tabs
Stairway To Heaven 4 Tabs


Song lyrics



↑ Back to top | Tablatures and chords are parodies/interpretations of the original songs. You may use it for private study, scholarship, research or language learning purposes only
© 2014 AZChords.com Contact us | Privacy policy | DMCA | Add/correct tabs | Request tabs | Top 50 tabs