» » »

Led Zeppelin, Out On The Tiles Tabs (ver.5)

Artists:  A B C D E F G H I J K L M N O P Q R S T U V W X Y Z # 

Out On The Tiles Tabs (ver.5)

Led Zeppelin Tabs
 Rating:
4/5 (4 votes)
Out On The Tiles lessons Tabs too difficult? Try these video lessons and learn fast
1
                intro X2
    G5                               D/F#
e----------------------------------------------------------|
b----------------------------------------------------------|
g----------------------------------------------------------|
d------------------------------------2----2----2----2------|
a---5-5-5-5-5-5-5-5-5-5-5-5-5-5-5-5--0----0----0----0------|
E---3-3-3-3-3-3-3-3-2-2-2-2-2-2-2-2----4b---4b---4b---4b---|

Main Riff X2

e----------------------------------------------------|
b----------------------------------------------------|
g----------------------------------------------------|
d---------4------1-2-1-2-1-2-1-----------------------|
a-----1-4----------------------4-0-2-0-2-0-2-3-2-0---|
E---2------------------------------------------------|
X2^

                                                               F#5 E5
e-----------------------------------------------------------------------------|
b-----------------------------------------------------------------------------|
g-----------------------------------------------------------------------------|
d--------4-------1-2-1-2-1-2-1------------------------------------------------|
a----1-4-----------------------4-2-4-2-4-2-4-2--------------------4--2-4-2-4--|
E---2------------------------------------------5-4-5-4-5-4-5-4-5--2--0-2-0-2--|

Riff 2 X2
    E            A                         E
e---0-0-0-0-0----0-0-0-0-0----0-0-0-0-0----0-0-0-0-0----0-0-0-0-0-|
b---0-0-0-0-0----2-2-2-2-2----2-2-2-2-2----0-0-0-0-0----0-0-0-0-0-|
g---1-1-1-1-1----2-2-2-2-2----2-2-2-2-2----1-1-1-1-1----1-1-1-1-1-|
d---2-2-2-2-2----2-2-2-2-2----2-2-2-2-2----2-2-2-2-2----2-2-2-2-2-|
a---2-2-2-2-2----0-0-0-0-0----0-0-0-0-0----2-2-2-2-2----2-2-2-2-2-|
E---0-0-0-0-0------------------------------0-0-0-0-0----0-0-0-0-0-|

   A                         E
e--0-0-0-0-0----0-0-0-0-0----0-0-0-0-0---------------------------|
b--2-2-2-2-2----2-2-2-2-2----0-0-0-0-0---------------------------|
g--2-2-2-2-2----2-2-2-2-2----1-1-1-1-1---------------------------|
d--2-2-2-2-2----2-2-2-2-2----2-2-2-2-2----2---2---2---2----------|
a--0-0-0-0-0----0-0-0-0-0----2-2-2-2-2----0---0---0---0----------|
E----------------------------0-0-0-0-0------4b--4b--4b--4b-------|

Intro
Main Riff
Riff 2
Intro
Main Riff
Riff 2
            
Submit corrections

comments powered by Disqus
↑ Back to top | Led Zeppelin Tabs for Out On The Tiles. Lyrics for acoustic guitar and electric guitar. 1 Tablatures and chords are parodies/interpretations of the original songs. You may use it for private study, scholarship, research or language learning purposes only