>
 >
Nobodys Fault But Mine

Nobodys Fault But Mine Guitar Tabs

Led Zeppelin - Nobodys Fault But Mine chords, tabs, tablatures, lyrics

Guitar lessons | Add/correct | Request | Top 50 tabs Artists:  A B C D E F G H I J K L M N O P Q R S T U V W X Y Z 0-9

Nobodys Fault But Mine Guitar Tabs – Led Zeppelin

CD, Sheet music, Poster

Do you like Nobodys Fault But Mine? Share with your friends now
Bass TabsDrum TabsTabs
|----------------------------|---------||-------------------------------|
|----------------------------|---------||-----------------------------3-|
|----------------------------|---------||-------------------2b4r(2)-----|
|----------------------------|---------||-------------------------------|
|----------------------------|---------||-------------------------------|
|----------------------------|---------||-------------------------------|

|----------------------------------------------|
|-(3)------------------------------------------|
|------2b3==(2)r(2)b3r(2)p0---------0---(0)----|
|-----------------------------2----------------|
|----------------------------------------------|
|----------------------------------------------|

|----------------------------------|------3---------3---------5b6--5-3-(3)-5-3-----|
|----------------------------------|----3---5-(5)---------5--------------------5---|
|-0---------------------(0)--------|-/4--------------------------------------------|
|---------------------------2-(2)--|-----------------------------------------------|
|----------------------------------|-----------------------------------------------|
|----------------------------------|-----------------------------------------------|

|-------3--------------------------------------------|
|-(5)------------------------------------------------|
|------------------------------9---(9)---11b13==(11)-|
|-------------------------9h11-----------------------|
|-------------------7s11-----------------------------|
|----------------------------------------------------|

|------------------------------------------12-------|
|---------------------------------------------14-12-|
|-(11)r(11)---9-11---9----9-(9)---------------------|
|----------------------11-------11------------------|
|---------------------------------------------------|
|---------------------------------------------------|

|-----------------------------------------------------------|
|-14-12-----------------12--14-12-14-12---(12)--------------|
|-------13-11b13==(11)r------------------------13-11-11b13==|
|-----------------------------------------------------------|
|-----------------------------------------------------------|
|-----------------------------------------------------------|

|---------------------------------------------------------------|
|-----------------------------------------12pb14r(12)b14==(12)--|
|-(11)r-11-9-----9---9----9-(9)-9-------------------------------|
|------------11--------11---------11----------------------------|
|---------------------------------------------------------------|
|---------------------------------------------------------------|

|-----------------------------------------------------|
|-(12)r---12---11b12-10-------10----------------------|
|-----------------------12b14----12--11-9---(9)-9-----|
|-------------------------------------------------11--|
|-----------------------------------------------------|
|-----------------------------------------------------|

|------------------------------------------------------|
|-12pb14r==(12)---12---9----9-(9)-x-10--------11b12----|
|------------------------11----------9-----------------|
|------------------------------------------------------|
|------------------------------------------------------|
|------------------------------------------------------|

|------------------------------------------------------------------------|
|---11b12-----11b12-----11b12==(11)r---11b12==(11)r-----11b12==(11)r-----|
|-x---------x---------x--------------x---------------x---------------x-x-|
|------------------------------------------------------------------------|
|------------------------------------------------------------------------|
|------------------------------------------------------------------------|

|-------------------------12------------------------|
|----------------------12----15b17------------------|
|-9----9------9-11s=13------------------------------|
|---11---11-----------------------------------------|
|---------------------------------------------------|
|---------------------------------------------------|

|-15------------15----------15------------------------|
|----15b17==========15r---------15--------------------|
|----------------------------------14b15==(14)r(14)---|
|-----------------------------------------------------|
|-----------------------------------------------------|
|-----------------------------------------------------|

|-15------------15----------------------------------------------|
|----15b17==========15r----12----------10-----------------------|
|-----------------------------14b15-12----12b13==(12)r------12s=|
|------------------------------------------------------14-------|
|---------------------------------------------------------------|
|---------------------------------------------------------------|

|----12------------------------------------------------10-|
|-------15---(15)---------12-12-15-------------12---12----|
|-13----------------12s13----------------12s13------------|
|---------------------------------------------------------|
|---------------------------------------------------------|
|---------------------------------------------------------|

|-(10)-------(10)-------------------------------|
|-----------------10b12r==(10)------------------|
|------------------------------9-9----9--9----9-|
|------------------------------------------11---|
|-----------------------------------------------|
|-----------------------------------------------|

|---------9----------------------------------------------------------|
|-------9---12p==9-12p=9------9-----------------------------------12-|
|-11b13--------------------11---11p==9-11p=9--------9-----9-11s13----|
|-----------------------------------------------11----11-------------|
|--------------------------------------------------------------------|
|--------------------------------------------------------------------|

|-14b16========(14)r---14-12-(12)-12-10-------------12---|
|------------------------------------------------12------|
|---------------------------------------------13---------|
|--------------------------------------------------------|
|--------------------------------------------------------|
|--------------------------------------------------------|

|-14b16=====(14)r---14----12-10-12--------------12-|
|--------------------------------------------12----|
|------------------------------------------x-------|
|--------------------------------------------------|
|--------------------------------------------------|
|--------------------------------------------------|

|-14b16------14b16r(14)-12---12-(12)-12s9---------------|
|--------------------------x--------------12-9----------|
|-------------------------------------------------9-----|
|----------------------------------------------11---11--|
|-------------------------------------------------------|
|-------------------------------------------------------|

|---------------------------------|
|--------------10-----------------|
|-11----9----9-11-9-9-(9)---------|
|----11---11----------------------|
|---------------------------------|
|---------------------------------|





Comments


Popular Led Zeppelin tabs & chords
All My Love Bass Tabs
Dyer Maker 2 Bass Tabs
Fool In The Rain 2 Bass Tabs
Stairway To Heaven Chords
Lemon Song 1 Drum Tabs
Babe I'm Gonna Leave You 1 Tabs
Bron Y Aur Stomp Complete Tabs
Cmon Everybody Tabs
Freedon Rings Tabs
Heartbreaker 8 Tabs


Song lyrics



↑ Back to top | Tablatures and chords are parodies/interpretations of the original songs. You may use it for private study, scholarship, research or language learning purposes only
© 2014 AZChords.com Contact us | Privacy policy | DMCA | Add/correct tabs | Request tabs | Top 50 tabs