» » »

Led Zeppelin, Moby Dick Bass tabs (ver.6)

Artists:  A B C D E F G H I J K L M N O P Q R S T U V W X Y Z # 

Moby Dick Bass tabs (ver.6)

Led Zeppelin Tabs
 Rating:
4/5 (4 votes)
Moby Dick lessons Tabs too difficult? Try these video lessons and learn fast
1
                that I believe is 100% correct.
P: Pull off

First Riff: x4
G|-----7---7p5---------------------------------------------------------|
D|-------------7-3---5-3--5--3-----------------------------------------|
A|--5------------------------------------------------------------------|
E|---------------------------------------------------------------------|


Second Riff: x2

G|------------------------------------------------------|
D|-----5--5p3-------------------------------------------|
A|-------------5-1--3-1--3-1----------------------------|
E|--3---------------------------------------------------|


First Riff: x2
G|-----7---7p5---------------------------------------------------------|
D|-------------7-3---5-3--5--3-----------------------------------------|
A|--5------------------------------------------------------------------|
E|---------------------------------------------------------------------|
Third Riff:

G|---------------------------------------------7---5---------|
D|--7-----7p5---7--7-----5--7---5-5-5-5-5-3----------7-5--3--|
A|------------7-------7---------------------5----------------|
E|-----5-----------------------------------------------------|
Play once

Play riff one three more times, then end with a fifth on the A, like so:

                             x3
G|-----7---7p5----------------|-----------------------------------------|
D|-------------7-3---5-3--5--3|-----------------------------------------|
A|--5-------------------------|--5--------------------------------------|
E|----------------------------|-----------------------------------------|
Then it goes into:
                             x1
G|-----7---7p5----------------|-----------------------------------------|
D|-------------7-3---5-3--5--3|-----------------------------------------|
A|--5-------------------------|--5--------------------------------------|
E|----------------------------|-----------------------------------------|

And then:
                          x1
G|--------------------------|----------------------------|
D|-----5--5p3---------------|----------------------------|
A|-------------5-1--3-1--3-1|----------------------------|
E|--3-----------------------|--3-------------------------|

Then:

G|-----7---7p5----------------|-----------------------------|
D|-------------7-3---5-3--5--3|-----------------------------|
A|--5-------------------------|--5--------------------------|
E|----------------------------|----------2h3-3-3-4-4--------|

Then they change it up with this:

G|------------------------------|----------------7--5------|------|
D|-----7---7p5----7----7----5--7|-5-5-5-5-5-3---------7-5-3|------|
A|-------------7---------7------|-------------5------------|-5----|
E|--5---------------------------|--------------------------|------|

Then comes the famous drum solo, and you'll end with:

                             x1
G|-----7---7p5----------------|--------|
D|-------------7-3---5-3--5--3|--------|
A|--5-------------------------|--5-----|
E|----------------------------|--------|

                          x1
G|--------------------------|----------------------------|
D|-----5--5p3---------------|----------------------------|
A|-------------5-1--3-1--3-1|----------------------------|
E|--3-----------------------|--3-------------------------|

                               x1
G|------------------------------|----------------7--5------|------|
D|-----7---7p5----7----7----5--7|-5-5-5-5-5-3---------7-5-3|------|
A|-------------7---------7------|-------------5------------|-5----|
E|--5---------------------------|--------------------------|------|

And the last two bars are:
    h    h     w
G|--------|---------------|
D|--------|---------------|
A|--5----3|---------------|
E|--------|-----5---------|
Please rate and enjoy.
~Love, Dallas~
            
Submit corrections

comments powered by Disqus
↑ Back to top | Led Zeppelin Bass for Moby Dick. Lyrics for acoustic guitar and electric guitar. 1 Tablatures and chords are parodies/interpretations of the original songs. You may use it for private study, scholarship, research or language learning purposes only