» » »

Led Zeppelin, Moby Dick Tabs (ver.4)

Artists:  A B C D E F G H I J K L M N O P Q R S T U V W X Y Z # 

Moby Dick Tabs (ver.4)

Led Zeppelin Tabs
Rating:
0/5 (0 votes)
Moby Dick lessons Tabs too difficult? Try these video lessons and learn fast
                Jon Bonham, Jimmy Page, John Paul Jones

Note: Sixth string = D (one full step down)

|----------------------------------|----------------------------------|
|----------------------------------|----------------------------------|
|----------------------------------|----------------------------------|
|----------------------------------|----------------------------------|
|-----5---5p3----------------------|-----5---5p3----------------------|
|-0-----------5-3-----5-3-----5---3|-0-----------5-3-----5-3-----5---3|

|----------------------------------|----------------------------------|
|----------------------------------|----------------------------------|
|----------------------------------|----------------------------------|
|----------------------------------|----------------------------------|
|-----5---5p3----------------------|-----5---5p3----------------------|
|-0-----------5-3-----5-3-----5---3|-0-----------5-3-----5-3-----5---3|

|--------------------------------|--------------------------------|
|--------------------------------|--------------------------------|
|--------------------------------|--------------------------------|
|-----5---5p3--------------------|-----5---5p3--------------------|
|-------------5-1-----3---1-3---1|-------------5-1-----3---1-3---1|
|-5------------------------------|-5------------------------------|

|----------------------------------|----------------------------------|
|----------------------------------|----------------------------------|
|----------------------------------|----------------------------------|
|----------------------------------|----------------------------------|
|-----5---5p3----------------------|-----5---5p3----------------------|
|-0-----------5-3-----5-3-----5---3|-0-----------5-3-----5-3-----5---3|

|--------------------------------|-------------------------------------|
|--------------------------------|-------------------------------------|
|--------------------------------|-----------------5b(7)-----5-2-------|
|-----7---7p5---7---7-----5---7-0|-5-5-5-5-5-3-------------------5-3---|
|-------------7---------7--------|-------------5-----------------------|
|-7------------------------------|-------------------------------------|

|----------------------------------|----------------------------------|
|----------------------------------|----------------------------------|
|----------------------------------|----------------------------------|
|----------------------------------|----------------------------------|
|-----5---5p3----------------------|-----5---5p3----------------------|
|-0-----------5-3-----5-3-----5---3|-0-----------5-3-----5-3-----5---3|

|----------------------------------|
|----------------------------------|
|----------------------------------|
|----------------------------------|
|-----5---5p3----------------------|
|-0-----------5-3-----5-3-----5---3|

|-----------10-------------------------------------------------|
|--------10-10----------------------------------------12-10---\|
|-12b(14)--------12b(14)r12-10----12-10---------------12-10---\|
|------------------------------12-------12---12-10-12----------|
|--------------------------------------------------------------|
|--------------------------------------------------------------|

|----------------------------------|
|----------------------------------|
|----------------------------------|
|----------------------------------|
|-----5---5p3----------------------|
|-0-----------5-3-----5-3-----5---3|

Hold Bend...........................................
|----------------------------------------------------13b(15)-----x-------13b(15)-x-------|
|-13b(15)-13b(15)---13b(15r13-13b(15)-13b(15)-13b(15)--------------x---------------x-----|
|--------------------------------------------------------------------x---------------x---|
|----------------------------------------------------------------------------------------|
|----------------------------------------------------------------------------------------|
|----------------------------------------------------------------------------------------|

|-------------------------------3p1|
|----------------------------------|
|----------------------------------|
|-----5---5p3----------------------|
|-------------5-1-----3-1---3------|
|-5--------------------------------|

|-p0-------------------3-1-0------------------------|
|----3p1p0-------------------3p1p0------------------|
|----------4p2p0-------------------4p2p0------------|
|----------------3p2p0-------------------3p2p0------|
|----------------------------------------------3p2p0|
|---------------------------------------------------|

|----------------------------------|
|----------------------------------|
|----------------------------------|
|----------------------------------|
|-----5---5p3----------------------|
|-0-----------5-3-----5-3-----5---3|

|----------------------------------10---------------------------|
|----------------------------10-12----13b(15)---13b(15)---------|
|----------------7-7-7---/11------------------------------------|
|------------7-9------------------------------------------------|
|-5-5-5---/9----------------------------------------------------|
|---------------------------------------------------------------|

|--------------------------------|-------------------------------------|
|--------------------------------|-------------------------------------|
|--------------------------------|-----------------5b(7)-----5-2-------|
|-----7---7p5---7---7-----5---7-0|-5-5-5-5-5-3-------------------5-3---|
|-------------7---------7--------|-------------5-----------------------|
|-7------------------------------|-------------------------------------|

|-------|
|-3-----|
|-2-----|
|-0-----|
|-------|
|-------|

(Drum Solo)

On cue...

|----------------------------------|-------|
|----------------------------------|-------|
|----------------------------------|-------|
|----------------------------------|-------|
|-----5---5p3----------------------|-------|
|-0-----------5-3-----5-3-----5---3|-0-----|

|----------------------------------|-------|
|----------------------------------|-------|
|----------------------------------|-------|
|----------------------------------|-------|
|-----5---5p3----------------------|-------|
|-0-----------5-3-----5-3-----5---3|-5-----|

|--------------------------------|-------------------------------------|
|--------------------------------|-------------------------------------|
|--------------------------------|-----------------5b(7)-----5-2-------|
|-----7---7p5---7---7-----5---7-0|-5-5-5-5-5-3-------------------5-3---|
|-------------7---------7--------|-------------5-----------------------|
|-7------------------------------|-------------------------------------|

|-------------|-------|
|-7-----5-----|-2-----|
|-7-----5-----|-2-----|
|-7-----5-----|-2-----|
|-5-----3-----|-0-----|
|-------------|-------|
            
Submit corrections

comments powered by Disqus
↑ Back to top | Led Zeppelin Tabs for Moby Dick. Lyrics for acoustic guitar and electric guitar. Tablatures and chords are parodies/interpretations of the original songs. You may use it for private study, scholarship, research or language learning purposes only