>
 >
Moby Dick

Moby Dick Drum Tabs

Led Zeppelin - Moby Dick chords, tabs, tablatures, lyrics

Guitar lessons | Add/correct | Request | Top 50 tabs Artists:  A B C D E F G H I J K L M N O P Q R S T U V W X Y Z 0-9

Moby Dick Drum Tabs – Led Zeppelin

CD, Sheet music, Poster

Do you like Moby Dick? Share with your friends now
Bass TabsBass Tabs v2Bass Tabs v3Bass Tabs v4Bass Tabs v5Bass Tabs v6Drum TabsTabsTabs v2Tabs v3Tabs v4Tabs v5Tabs v6Tabs v7
-------------------------------------------------------------------------------
-------------------------------------------------------------------------------


C-Crash
C2-2nd crash
Rb-RideBell
cb-cowbell
S-snare                   g-ghost,o-normal,0-accent,d-double or roll, x-rim
Mt-Mounted Tom            x-rim,o-normal,0-accent,D-accented double 
Ft-Floor Tom 1              "    "         "          "
F2-Floor Tom 2               "     "        "           " 
B-Base
Hf-Hi-Hat with foot


C |----------------||X---------------||----------------||----------------|
cb|----------------||--x-x-x-x-x-x-x-||x-x-x-x-x-x-x-x-||x-x-x-x-x-x-x-x-|
S |o-oooo-oo-o-ooo-||----o----o-o--d||----o----o-o--d||----o----o-o--d|
B |----------------||o--o---o---o-o--||o--o---o---o-o--||o--o---o---o-o--|
 

C |----------------||x---------------||----------------||----------------|
cb|x-x-x-x-x-x-x-x-||--x-x-x-x-x-x-x-||x-x-x-x-x-x-x-x-||x-x-x-x-x-x-x-x-|
S |----o----o-o-o-o||----o----o-o--d||----o----o-o--d||----o----o-o--d|
B |o--o---o--------||o-o----o---o-o--||o--o---o---o-o--||o--o---o---o-o--|
 
  |=======X2=======|
C |----------------||--------X-------||X---------------||----------------|
cb|x-x-x-x-x-x-x-x-||----------------||--x-x-x-x-x-x-x-||x-x-x-x-x-x-x-x-|
S |----o----o-o--o||-f------o-----00||----o----o-o--d||----o----o--oo-d|
B |o--o---o---o-o--||----------------||o--o---o---o-o--||o-o----o---o----|
   
C |----------------||----------------||X---------------||----------------|
cb|x-x-x-x-x-x-x-x-||----------------||--x-x-x-x-x-x-x-||----------------|
S |----o----o-o-o--||f-doooo--oo-do-o||----o----o--o--g||000000000-D00-D0|
MT|----------------||-------o-----o-||----------------||----------------|
Ft|----------------||-----------o----||----------------||----------------|
B |o--o---o--------||----------------||o--o---o---o----||----------------|
Hf|----------------||----------------||----------------||----------------|
  
C |X---------------||---------------X| 
Rb|--x-x-x-x-x-x-x-||----------------|
S |----o----o--o--D||-------D--------|
MT|----------------||-D-------D------|
Ft|----------------||---D-------D----|
F2|----------------||-----D-------D--|
B |o--o---o---o-o--||--------------oo|

C |X---------------||----------------|
Rb|--x-x-x-x-x-x-x-||----------------|
S |----o----o--o---||o-o-ooo-ooo-oo-o|
Mt|----------------||----------------|
Ft|----------------||----------------|
F2|----------------||----------------|
B |o--o---o---o-o--||----------------|

C |X---------------||--------|
Rb|--x-x-x-x-x-x-x-||x-x-x-x-|
S |----o----o--o---||--------|
MT|----------------||--------|
Ft|----------------||--------|
F2|----------------||--------|
B |o--o---o---o-o--||o-------|




Drum solo:


C |X--------------X||----------------|
S |o---------------||----------------|
MT|----------------||----------------|
Ft|----------------||----------------|
F2|----------------||----------------|
B |---------------o||----o---o---o--o|
Hf|----------------||--x---x---x---x-|




S |--oooo-----oooo-||-------oooo-oooo||---------o-o-o--||--------o-o-o---|
MT|--oooo----------||-------oooo-----||---------o------||--------o-------|
Ft|-----------oooo-||------------oooo||-----------o----||----------o-----|
F2|----------------||----------------||-------------o--||------------o---|
B |--o---o---o----o||--o---o----o----||o---------------||-o-----o------o-|
Hf|----x---x---x---||x--x---x---x---||--x--x--x-------||x--x--x------x--|

S |------o---g-----||----o-----------||0og00gggg-f-0ogg||0-0g00-00-0-0-Do|
MT|----o---x-------||-oo---o---------||----------------||-------------0--|
Ft|-----------o----||--------o-------||----------------||----------------|
F2|----------------||---------o------||----------------||----------------|
B |-o--------------||----------------||----------------||----------------|
Hf|x-x--x--x--x--x-||-x--x--x--x--x--||x--x--x--x--x---||x-x-x-x-x-x-x-x-|
	
S |0g0ggg00-DDg0-0||gggg0-DD-DD-DD--||Dg0g0g-DD-dggg-||g--g--g-g00-gg-|
MT|--------D-------||-----D-----D----||------D---------||--o-oo-o--------|
Ft|-----------D----||--------D-----D-||---------D0-----||--------o---o---|
F2|----------------||----------------||----------------||----------------|
B |----oo--------o-||----------------||----------------||----------------|
Hf|x-x-x-x-x-x-x-x-||x-x-x-x-x-x-x-x-||x-x-x-x-x-x-x-x-||x-x-x-x-x-x-x-x-|


 S|-DD-DD-0-gg--g-D||0-gg--d-d-0gg0g||-00-----ogg0g0g0||-F-0g00---0g00g-|
MT|----------------||----o-----o-----||----0-0---------||--------o-------|
Ft|o--D--D-----0-D-||-------o--------||-------o--------||---------o------|
F2|----------------||----------------||----------------||----------------|
B |----------------||----------------||----------------||----------------|
Hf|x-x-x-x-x-x-x-x-||x-x-x-x-x-x-x-x-||x-x-x-x-x-x-x-x-||x-x-x-x-x-x-x-x-|


S |-DD-0o0o00-oo0o||o0g-DD-DD-DD-DD-||---DD-DD-DD-DD--||--DD-DD-DD-DD--F|
MT|0---------------||---0------------||--D--D--D--D--D-||-D--D--D--D--D--|
Ft|---D------------||------D--D--D--D||--D--D--D--D--D-||-D--D--D--D--D--|
F2|----------------||----------------||----------------||----------------|
B |----------------||----------------||----------------||----------------|
Hf|x-x-x-x-x-x-x-x-||x-x-x-x-x-x-x-x-||x-x-x-x-x-x-x-x-||x-x-x-x-x-x-x-x-|





S |0-00-o---o--gggg||gggg-00-0-00---0||gogogo0-00-gg---||F-00-ggggdddoggd|
MT|------oo--------||-------------0F-||--------------FF||----------------|
Ft|--------o-------||----------------||----------------||----------------|
F2|----------------||----------------||----------------||----------------|
B |----------------||----------------||----------------||----------------|
Hf|x-x-x-x-x-x-x-x-||x-x-x-x-x-x-x-x-||x-x-x-x-x-x-x-x-||x-x-x-x-x-x-x-x-|


S |ododdo-ooodd-ooo||dddd0d-o----o-||-dd---do-ddd-d-d||dd-d-ddd-dd-d-dd|
MT|----------------||-------oo-------||------------o-o-||--------o-------|
Ft|----------------||-----------o-o--||o----o----------||--o-o------o-o--|
F2|----------------||----------------||----------------||----------------|
B |----------------||----------------||----------------||----------------|
Hf|x-x-x-x-x-x-x-x-||x-x-x-x-x-x-x-x-||x-x-x-x-x-x-x-x-||x-x-x-x-x-x-x-x-|






S |-d-dd-d-dd--d-dd||ddddd(Fade-Out)|
MT|----------o-----||----------------|
Ft|o-o--o-o---o-o--||----------------|
F2|----------------||----------------|
B |----------------||----------------|
Hf|----------------||----------------|


(PART II)



S |dddddd00-0-00-00||dddggggggggggggg||g0-00-0-00-0-00-||00gggggggggggggg|
MT|----------------||----------------||----------------||----------------|
Ft|----------------||----------------||----------------||----------------|
F2|----------------||----------------||----------------||----------------|
B |----------------||-00-0-00-00-----||----------------||----0-00-0-00-0-|
Hf|x-x-x-x-x-x-x-x-||x-x-x-x-x-x-x-x-||x-x-x-x-x-x-x-x-||x-x-x-x-x-x-x-x-|


S |ggggggg00-0-0g0g||0g0g0g0ggggggggg||ggggggggg-00-0-0||-000-000-ggggggg|
MT|----------------||----------------||----------------||----------------|
Ft|----------------||----------------||----------------||----------------|
F2|----------------||----------------||----------------||----------------|
B |00-00-----------||--------00-0-0-0||-0-0-0-0--------||---------00-0-0-|
Hf|x-x-x-x-x-x-x-x-||x-x-x-x-x-x-x-x-||x-x-x-x-x-x-x-x-||x-x-x-x-x-x-x-x-|



S |gggggggggggg0ggg||gggggggg0ggg-0-g||-gg0-gg0--gggf-||gggf-gggf-gggf-g|
MT|----------------||----------------||----------------||----------------|
Ft|----------------||----------------||----------------||----------------|
F2|----------------||----------------||----------------||----------------|
B |000-000-00----00||-00--000-000-0-0||00---000---o-o--||o-o--o-o--o-o--0|
Hf|x-x-x-x-x-x-x-x-||x-x-x-x-x-x-x-x-||x-x-x-x-x-x-x-x-||x-x-x-x-x-x-x-x-|



S |ggF-gggF-og0-ggg||ggg0ggoggg0---0||--ggg0-00----0--||g0----gg0-gggggg|
MT|----------------||-------------0--||----------00----||---0------------|
Ft|----------------||----------------||-0-------------0||----0-----------|
F2|----------------||----------------||----------------||----------------|
B |-0--0-0-o-o-o-o-||o-o-o-o-o-o-o-o-||o-o-o-o-o-o-o-o-||o-o-o-o-o-o-o-o-|
Hf|x-x-x-x-x-x-x-x-||x-x-x-x-x-x-x-x-||x-x-x-x-x-x-x-x-||x-x-x-x-x-x-x-x-|






S |gg0-g00----0--0-||ggg0g0g00g0-000||0-------------0g||g0gg000----gg0g|
MT|--------00---0-0||--------0-------||----0---0---0---||--0------0------|
Ft|----------------||----------------||--00--00--00----||---0-------0----|
F2|----------------||----------------||----------------||----------------|
B |o-o-o-o-o-o-o-o-||o-o-o-o-o-o-o-o-||o-o-o-o-o-o-o-o-||o-o-o-o-o-o-o-o-|
Hf|x-x-x-x-x-x-x-x-||x-x-x-x-x-x-x-x-||x-x-x-x-x-x-x-x-||x-x-x-x-x-x-x-x-|

S |g00---------0-00||0-0-----o--o--g-||-0-g00----------||----------------|
MT|----0---0-------||----0----------0||-------0---0---0||--------0---0---|
Ft|-----00--00-----||-----00---o-o---||0-------00--00--||00-0-0-0-00--00-|
F2|----------------||----------------||----------------||----0-0---------|
B |o-o-o-o-o-o-o-o-||o-o-o-o-o-o-o-o-||o-o-o-o-o-o-o-o-||o-o-o-o-o-o-o-o-|
Hf|x-x-x-x-x-x-x-x-||x-x-x-x-x-x-x-x-||x-x-x-x-x-x-x-x-||x-x-x-x-x-x-x-x-|



S |----------------||----------------||----------------||----------------|
MT|0--------0---0--||-0---------0---0||---0---------0--||-0---0---------0|
Ft|-000-00-00--00||--00-0-0-0--00--||00-00-0-0-0--00||--00--00-0-0-0--|
F2|-----0-0--------||------0-0-------||--------0-0-----||----------0-0---|
B |o-o-o-o-o-o-o-o-||o-o-o-o-o-o-o-o-||o-o-o-o-o-o-o-o-||o-o-o-o-o-o-o-o-|
Hf|x-x-x-x-x-x-x-x-||x-x-x-x-x-x-x-x-||x-x-x-x-x-x-x-x-||x-x-x-x-x-x-x-x-|


S |----------------||----------------||----------------||----------------|
cb|----------------||------o-o-o-o-o-||o-o-o-o-o-------||o-o-o-o-o-o-o-o-|
MT|---0---0--------||-0-0-0-0-0-0-0-0||-0-0-0-0-0-0-0-0||-0-0-0-0-0-0-0-0|
Ft|00--00--00-0-0-0||--0-------------||----------0-0-0-||----------------|
F2|------------0-0-||----------------||----------------||----------------|
B |o-o-o-o-o-o-o-o-||o-o-o-o-o-o-o-o-||o-o-o-o-o-o-o-o-||o-o-o-o-o-o-o-o-|
Hf|x-x-x-x-x-x-x-x-||x-x-x-x-x-x-x-x-||x-x-x-x-x-x-x-x-||x-x-x-x-x-x-x-x-|


S |--------0ogggggg||gggg0ooooooo0--0||oooooo000-F-oooo||--0---0ooooo00--|
cb|o---------------||----------------||----------------||----------------|
MT|-0-0-0-0--------||-------------0--||----------------||0-------------0-|
Ft|----0-0---------||--------------0-||----------------||----0----------0|
F2|----------------||----------------||----------------||----------------|
B |o-o-o-o-o-o-o-o-||o-o-o-o-o-o-o-o-||o-o-o-o-o-o-o-o-||o-o-o-o-o-o-o-o-|
Hf|x-x-x-x-x-x-x-x-||x-x-x-x-x-x-x-x-||x-x-x-x-x-x-x-x-||x-x-x-x-x-x-x-x-|


S |0-oo0---oooogggg||gg-F-F-0-------F||-gggggggg-gg-go-||gg-go-ggg0-0-ooo|
MT|----------------||---------0--0---||----------------||----------------|
Ft|------0---------||----------00-00-||----------------||----------------|
F2|----------------||----------------||----------------||----------------|
B |o-o-o-o-o-o-o-o-||o-o-------------||----------------||----------------|
Hf|x-x-x-x-x-x-x-x-||----------------||----------------||----------------|


S |F-oooF-oooF-----||---oooF-0-------||F-gggggg0-0-----||---0-000--------|
MT|------------0--0||----------0--0--||-----------0--0-||---------0--0---|
Ft|-------------00-||00---------00-00||------------00-0||0---------00-00-|
F2|----------------||----------------||----------------||----------------|
B |----------------||----------------||---------0------||--0-------------|
Hf|x-x-x-x-x-x-x-x-||x-x-x-x-x-x-x-x-||x-x-x-x-x-x-x-x-||x-x-x-x-x-x-x-x-|







S |-0-000-------0--||-0---0----F-ogog||ogogogogogo-oF-d||dddddddddddddddd|
MT|------0--0----0-||0-0-0-0-0-------||----------------||----------------|
Ft|-------00-00---0||---0---0--------||----------------||----------------|
F2|----------------||----------------||----------------||----------------|
B |0---------------||----------------||----------------||----------------|
Hf|x-x-x-x-x-x-x-x-||x-x-x-x-x-x-x-x-||x-x-x-x-x-x-x-x-||x-x-x-x-x-x-x-x-|



S |dd0-00dddddddddd||dddddd0-00-D-D-D||-D-D-D-0-00ddddd||dddddddddddddddd|
MT|----------------||----------0-D-D-||D-D-D-----------||----------------|
Ft|----------------||----------------||----------------||----------------|
F2|----------------||----------------||----------------||----------------|
B |------------o-o-||o-o-o-o-o-o-o-o-||------------o-o-||o-o-o-o-o-o-o-o-|
Hf|x-x-x-x-x-x-x-x-||x-x-x-x-x-x-x-x-||x-x-x-x-x-x-x-x-||x-x-x-x-x-------|



S |0-00-00-00-0dd0||-dd-0-0-0ddd00-0||dddddd00-D-dD-D-||D-D-D-D-D-D-0ddd|
MT|-------D--DD----||0--0-0-0--------||--------0-D--D-D||-D-D-D-D-D-D----|
Ft|----------------||--------------0-||----------------||----------------|
F2|----------------||----------------||----------------||----------------|
B |----------------||----------------||----------------||--------------o-|
Hf|----------------||----------------||----------------||----------------|


S |dddddddddddddddd||0-0-0-00-ddddddd||0-00-000-000Fddd||ddddddF-dddddddd|
MT|----------------||----------------||----------------||----------------|
Ft|----------------||----------------||----------------||----------------|
F2|----------------||----------------||----------------||----------------|
B |-o-o-o-o-o-o-o--||----------------||----------oo----||----oo----------|
Hf|x-x-x-x-x-x-x-x-||x-x-x-x-x-x-x-x-||x-x-x-x-x-x-x-x-||x-x-----x-x-x-x-|



S |dddddddd-F-ddddd||dddddd-F-dddd-F-||dd-F-dd-F-dd-F-d||d-F-ogogogogogog|
MT|----------------||----------------||----------------||----------------|
Ft|----------------||----------------||----------------||----------------|
F2|----------------||----------------||----------------||----------------|
B |-------oo-------||-----oo-----oo--||-oo---oo---oo---||oo--------------|
Hf|x-x-x-x---x-x-x-||x-x-x---x-x---x-||x---x---x-----x-||--x-x-x-x-x-x-x-|

                         (snare off)
S |0ggggggggo0ggggg||0gggggggggggg0gg||0--ggF-ooooF-o-o||-o-o-o-o-o-o----|
MT|----------------||----------------||------------o---||o-o-o--------o--|
Ft|----------------||----------------||--------------o-||---------------o|
F2|----------------||----------------||----------------||----------------|
B |----------------||----------------||--o---0------o-o||-o-o-o-o-o-o-o-o|
Hf|x-x-x-x-x-x-x-x-||x-x-x-x-x-x-x-x-||----------------||----------------|

S |o-o-o-o-o-o-o-o-||o-o-o-0-0-o-o-o-||o-o-o-o-o-o-0--||-0-o-o-o-o-o-o-o|
MT|----o---------o-||------0-------o-||--o---o-----o---||----o-------o---|
Ft|--o---o-----o---||o---o---0---o---||o---o---o-------||0-----o---o---o-|
F2|o-------o-------||--o-------o-----||----------o-----||--------o-------|
B |-o-o-o-o-o-o-o-o||-o-o-o-o-o-o-o-o||-o-o-o-o-o-o-o-o||----o-o-o-o-o-o-|
Hf|----------------||----------------||----------------||----------------|






S |-o-o-o----------|
MT|o-o-o-----------|
Ft|------(Fade-out)|
F2|----------------|
B |-o-o-o----------|
Hf|----------------|


(PART III)
(snare on)

S |-o-o-o-o-o-o-o-o||-o-o-o-o-o-o-o-o||-00-00--00------||---000-o-o------|
Cb|x-x-x-x-x-------||--x-x-x-x-------||----------------||----------------|
MT|----------------||----------------||-------------o--||-------------o--|
Ft|----------o---o-||------------o---||---------------o||---------------o|
F2|------------o---||----------o---o-||----------------||----------------|
B |-o-o-o-o-o-o-o-o||-o-o-o-o-o-o-o-o||-----------o----||-o---------o----|
Hf|----------------||----------------||----------------||----------------|

                                                        |-----8-Times----| 
S |---00-o-o-------||---x------------||----------------||----------------|
MT|------------o---||-----o-----o----||-o---o---o---o--||-o--o--o--o--o--|
Ft|--------------o-||-------o-----o--||--o---o---o---o-||--o--o--o--o--o-|
F2|----------------||----------------||----------------||----------------|
B |-o--------o-----||o--------o-----o||---o---o---o---o||---o--o--o--o--o|
Hf|----------------||----------------||----------------||----------------|


S |00--------------||----------------||----------------||--00------------|
MT|--0--o--o--o--o-||-o--o--o--o--o--||o--o--o--o--o--o||----0--o--o--o--|
Ft|---0--o--o--o--o||--o--o--o--o--o-||-o--o--o--o--o--||o----o--o--o--o-|
F2|----------------||----------------||----------------||----------------|
B |----0--o--o--o--||o-o--o--o--o--o||--o--o--o--o--o-||-o----o--o--o--o|
Hf|----------------||----------------||----------------||----------------|

S |-------------00-||000------0--o--o||--o--o--o--o--o-||----------00--00|
MT|o--o--o--o------||---0--0---------||----------------||-o--o--o----00--|
Ft|-o--o--o--o-----||----0--0--o--o--||o--o--o--o--o--o||--o--o--o-------|
F2|----------------||----------------||----------------||----------------|
B |--o--o--o--o----||-----0--0--o--o-||-o--o--o--o--o--||o--o--o--o------|
Hf|----------------||----------------||----------------||----------------|

S |--00--00--------||---0-0------0-00||00---0-0-0------||----------------|
MT|00--00--00-0-0-0||-0-0-0-0-0------||--00--0-0-0-o--o||--o--o--o--o--o-|
Ft|------------0-0-||0-0-0---0-0-----||----0-0-0-0--o--||o--o--o--o--o--o|
F2|----------------||----------------||----------------||----------------|
B |o-o-o-o-o-o-o-o-||o-o-o-o-o-o-o-o-||o-o-o-o-o-o-o-o-||-o--o--o--o--o--|
Hf|----------------||----------------||----------------||----------------|

S |-0-00-00--------||00-------00---0-||0--------0-00---||------00--------|
MT|-----0--0--0-0-0||--0-0-0-0--0-0-0||-0-0-0-0--0--0-0||-0-0-0--0-0-0-0-|
Ft|--0-0----0--0-0-||---0---0----0---||--0-0-0-0-----0-||0-0-0----0-0-0-0|
F2|----------0-----||-----0----------||----------------||----------------|
B |o-o-o-o-o-o-o-o-||o-o-o-o-o-o-o-o-||----------------||----------------|
Hf|----------------||----------------||----------------||----------------|

S |0-00---------0-0||0-----0-00-----0||-00-----0-00----||-0-0----00-0----|
MT|-0--0-0-0-0-0-0-||-0-0-0-0--0-0-0-||0--0-0-0-0--0-0-||0---0000----0000|
Ft|-----0-0-0-0----||--0-0------0-0--||----0-0------0-0||----------------|
F2|----------------||----------------||----------------||----------------|
B |o-o-o-o-o-o-o-o-||o-o-o-o-o-o-o-o-||o-o-o-o-o-o-o-o-||o-o-o-o-o-o-o-o-|
Hf|----------------||----------------||----------------||----------------|

S |00----00----00--||----00------00--||----00------00--||----00------00--|
MT|--0-0---0000--00||0000--000000--00||0000--000000--00||0000--000000--00|
Ft|---0-0----------||----------------||----------------||----------------|
F2|----------------||----------------||----------------||----------------|
B |o-o-o-o-o-o-o-o-||o-o-o-o-o-o-o-o-||o-o-o-o-o-o-o-o-||o-o-o-o-o-o-o-o-|
Hf|----------------||----------------||----------------||----------------|


S |----00------00--||----00------00--||----00----0---0-||----------------|
MT|0000--000000--00||0000--000000--00||0000--0000-000-o||o-o--o-o--o--o|
Ft|----------------||----------------||----------------||-o-o--o--o--o--|
F2|----------------||----------------||----------------||----------------|
B |o-o-o-o-o-o-o-o-||o-o-o-o-o-o-o-o-||o-o-o-o-o-o-o-o-||--o-o-o-o-o-|
Hf|----------------||----------------||----------------||----------------|


S |----------------||----------------||----------------||000-0-0-0-0-0000|
MT|-----o-----o----||o-----o-----o---||--o-----o-------||----------------|
Ft|-o-----o-----o--||--o-----o-----o-||----o-----o-----||----------------|
F2|----------------||----------------||----------------||----------------|
B |---o-----o-----o||----o-----o-----||o-----o-----o---||----------------|
Hf|----------------||----------------||----------------||----------------|



C |X---------------||----------------||X---------------|
Rb|--x-x-x-x-x-x-x-||----------------||--x-x-x-x-x-x-x-|
S |----o----o-o---||o--o-o-oo-o-ooo-||----o----o-o--d|
B |o--o---o---o-o--||----------------||o--o---o---o-o--|
 

C |----------------||x---------------||X-----X---------||X---------X-----|
Rb|x-x-------------||--x-x-x-x-x-x-x-||--x-x-----------||----------------|
S |---o-o-oo-o-ooo-||----o----o-o--d||---------00-0---||--00-0------00-|
MT|----------------||----------------||-------------0--||------0---------|
Ft|----------------||----------------||--------------0-||-------0--------|
F2|----------------||----------------||----------------||----------------|
B |o---------------||o-o----o---o-o--||o-----o---------||o--------0------|

C |----------------||----------------||----------------||----------------|
Rb|----------------||----------------||----------------||----------------|
S |00-00---------0-||----------0-0--0||--0--0-0-0-0-0--||0-0-0-0-00-0---|
MT|-----0---0------||0-----0------0--||0--0--0-0-0-0---||-0-0-0-------0--|
Ft|------0---00----||--0----00-----0-||-0--0-0-0-0-0---||-0-0-0--------0-|
F2|-------0--------||----0-----------||----------------||----------------|
B |----------------||----------------||----------------||---------------0|

C |----------------||----------------||----------------||X-----X---X-X---|
C2|----------------||----------------||----------------||----X-----------|
Rb|----------------||----------------||----------------||X-X-----X-----X-|
S |--00--00---0----||00-------00-----||00-0F-0---------||----------------|
MT|----00--00--0---||---0--------0---||-------0--------||----------------|
Ft|----------0-0--||-----0--------0-||--------0-------||----------------|
F2|----------------||----------------||----------------||----------------|
B |----------------||-------0--------||---------0------||o-o-o-o-o-o-o-o-|

C |X---X-X---X---X-||--X---X---X---X-||------X---------||----------------|
C2|--------X-------||----X-----------||----------------||----------------|
Rb|--X---------X---||X-------X---X-X-||------X---------||----------------|
S |----------------||----------------||00-00-----------||----------------|
MT|----------------||----------------||----------------||----------------|
Ft|---------------||----------------||----------------||----------------|
B |o-o-o-o-o-o-o-o-||o-o-o-o-o-o-o-o-||----------------||----------------|





Comments


Popular Led Zeppelin tabs & chords
Achilles Last Stand Bass Tabs
Black Dog 6 Bass Tabs
Gallows Pole 2 Bass Tabs
In My Time Of Dying Bass Tabs
Street Corner Girl Bass Tabs
Tea For One 2 Bass Tabs
Hey Hey Chords
Tangerine 1 Drum Tabs
Train Kept A Rollin Tabs
What Is And What Should Never Be 1 Tabs


Song lyrics



↑ Back to top | Tablatures and chords are parodies/interpretations of the original songs. You may use it for private study, scholarship, research or language learning purposes only
© 2014 AZChords.com Contact us | Privacy policy | DMCA | Add/correct tabs | Request tabs | Top 50 tabs