» » »

Misty Moutain Hop Bass tabs (ver.1)

Artists:  A B C D E F G H I J K L M N O P Q R S T U V W X Y Z # 

Misty Moutain Hop Bass tabs (ver.1)

Led Zeppelin
Rating:
0/5 (0 votes)

Hard to play? Try these video lessons and learn fast.
                This is my first tab I ever did so here it is..........

Intro / Verse

G:-------------------------------
D:-------------------------------
A:-------------------------------
E:--5--3--0-0--0-5--3---0-0---0--

G:----------------------------------------------
D:-----------------------------------------------
A:--4--5--3--4--5--3--4--5--3--4--5--3--
E:----------------------------------------------

Chorus

G:-------------------------------------
D:---------7-----------7---------------
A:-----7-9---9-7---7-9---9-7-----------  x2
E:--9------------7-----------5---------


During solo

G:-------------------------------
D:-------------------------------
A:-------------------------------
E:--5--3--0-0--0-5--3---0-0---0--

play it a few times and than this:

G:-------------------------------------
D:---------7-----------7---------------
A:-----7-9---9-7---7-9---9-7-----------
E:--9------------7-----------5---------
            
Hard to play? Try these video lessons and learn fast. | Correct




comments powered by Disqus
↑ Back to top | Tablatures and chords are parodies/interpretations of the original songs. You may use it for private study, scholarship, research or language learning purposes only