>
 >
Im Gonna Crawl 2

Im Gonna Crawl 2 Guitar Tabs

Led Zeppelin - Im Gonna Crawl 2 chords, tabs, tablatures, lyrics

Guitar lessons | Add/correct | Request | Top 50 tabs Artists:  A B C D E F G H I J K L M N O P Q R S T U V W X Y Z 0-9

Im Gonna Crawl 2 Guitar Tabs – Led Zeppelin

CD, Sheet music, Poster

Do you like Im Gonna Crawl 2? Share with your friends now
Tabs
I'm Gonna Crawl - Led Zeppelin

Standard Tuning

  12/8 time
E|--------0---------3-5---|
B|------1---1-----1-4-----|
G|----0---------1---4-----|
D|--2---------1-----------| Play
A|3-----------------------| 8 times
E|------------------------|

E|5-----------------1-----|
B|5-----------------1-----|
G|5-----------------2-----|
D|7---------5-353-------5-|
A|7-----------------------|
E|5-----------------------|

                                                               6/8 time
E|------5-----------1-----|          |------5-----------------|1110--------|
B|------5-----------1-----|          |------5-----------------|3331--------|
G|------5-----------2-----|          |------5-----------------|------------|
D|7---------5-353-------5-| Play     |7---------5-353---------|------------|
A|------------------------| 2 times  |------------------------|------------|
E|------------------------|          |------------------------|------------|

  12/8 time
E|--------0---------3-5---|
B|------1---1-----1-4-----|
G|----0---------1---4-----|
D|--2---------1-----------| Play
A|3-----------------------| 6 times
E|------------------------|

E|5-----------------1-----|
B|5-----------------1-----|
G|5-----------------2-----|
D|7---------5-353-------5-|
A|7-----------------------|
E|5-----------------------|

                                                               6/8 time
E|------5-----------1-----|          |------5-----------------|1110--------|
B|------5-----------1-----|          |------5-----------------|3331--------|
G|------5-----------2-----|          |------5-----------------|------------|
D|7---------5-353-------5-| Play     |7---------5-353---------|------------|
A|------------------------| 2 times  |------------------------|------------|
E|------------------------|          |------------------------|------------|

  12/8 time
E|2-----2---------2---2---|------3-----------------||55555-55555-55555-5-----|
B|3-----3---------3---3---|--------3-3---------3---||55555-55555-55555-5-----|
G|2-----2-------2-----2---|------------------------||55555-55555-55555-5---4-|
D|0-----0-----0-------0---|----0-----------0-------||77777-77777-77777-7---5-|
A|------------------------|--2-----------2---------||77777-77777-77777-7-----|
E|------------------------|3-----------3-----------||55555-55555-55555-5-----|

E|------------------------|55555-55555-55555-5-----|------------------------||
B|------------------------|55555-55555-55555-5-----|------------------------||
G|4-2---------------------|55555-55555-55555-5---4-|4-2---------------------||
D|5-3---------------------|77777-77777-77777-7---5-|5-3---------------------||
A|------------------------|77777-77777-77777-7-----|------------------------||
E|------------------------|55555-55555-55555-5-----|------------------------||

  Guitar Solo
E|------------------------|-----------------5-----------|
B|------------------------|------------------85855------|
G|--------9---8---------9-|975---------5-59-------75-5-5|
D|------------------------|----------57-7-----------7-7-|
A|------------------------|--------67-------------------|
E|------------------------|-----------------------------|
 |                                     \3/   \-3-/\3/   |
E|--------0---------3-5---|--------0---------3-5---|
B|------1---1-----1-4-----|------1---1-----1-4-----|
G|----0---------1---4-----|----0---------1---4-----|
D|--2---------1-----------|--2---------1-----------|
A|3-----------------------|3-----------------------|
E|------------------------|------------------------|

E|------------------------|------------------------|
B|------------------------|---------8101313-8------|
G|9-------9-9-8---------78|7-5---------------------|
D|------------------------|-------10---------------|
A|------------------------|------------------------|
E|------------------------|------------------------|
 |                     \3/                         |
E|--------0---------3-5---|--------0---------3-5---|
B|------1---1-----1-4-----|------1---1-----1-4-----|
G|----0---------1---4-----|----0---------1---4-----|
D|--2---------1-----------|--2---------1-----------|
A|3-----------------------|3-----------------------|
E|------------------------|------------------------|

E|---------------------------|--------78787----------------------|
B|10------10-1086--585-------|-------------108-------------------|
G|--------------------775--57|5-5-------------91097975 7575------|
D|-----------------------77--|-7----------------------7----7-57-5|
A|---------------------------|------------------------------7--7-|
E|---------------------------|-----------------------------------|
 |                                                 |
E|5-----------------1-----|------5-----------1-----|
B|5-----------------1-----|------5-----------1-----|
G|5-----------------2-----|------5-----------2-----|
D|7---------5-353-------5-|7---------5-353-------5-|
A|7-----------------------|------------------------|
E|5-----------------------|------------------------|

                                                    6/8 time
E|---------------------787|5------8---81012108----810-1215|1717--------|
B|------------------578---|---------10--------1010--------|------------|
G|------------565568------|-----0-------------------------|------------|
D|7-7-57----57------------|-------------------------------|------------|
A|-7-7--------------------|-------------------------------|------------|
E|------------------------|-------------------------------|------------|
 |            \3/\3/\3/\3/      \-3--/   \-3-/                  |
E|------5-----------1-----|------5-----------------|1110--------|
B|------5-----------1-----|------5-----------------|3331--------|
G|------5-----------2-----|------5-----------------|------------|
D|7---------5-353-------5-|7---------5-353---------|------------|
A|------------------------|------------------------|------------|
E|------------------------|------------------------|------------|

  12/8 time
E|--19--17------1516171919|191715--1517191715171517|1515151515-1515151515-1515151515-15----|
B|--------151518----------|------------------------|1717171717-1717171717-1717171717-17--12|
G|------------------------|------------------------|1717171717-1717171717-1717171717-17--12|
D|------------------------|------------------------|-------------------------------------12|
A|------------------------|------------------------|---------------------------------------|
E|------------------------|------------------------|---------------------------------------|
 |                                                                          |
E|2-----2---------2---2---|------3-----------------|55555-55555-55555-5-----|
B|3-----3---------3---3---|--------3-3---------3---|55555-55555-55555-5-----|
G|2-----2-------2-----2---|------------------------|55555-55555-55555-5---4-|
D|0-----0-----0-------0---|----0-----------0-------|77777-77777-77777-7---5-|
A|------------------------|--2-----------2---------|77777-77777-77777-7-----|
E|------------------------|3-----------3-----------|55555-55555-55555-5-----|

E|------------------------|1515151515-1515151515-1515151515-------|1513--------------17----||
B|------------------------|1717171717-1717171717-1717171717-17----|------------------------||
G|1210----141210--141210--|1717171717-1717171717-1717171717-----16|1614--------------------||
D|------------------------|---------------------------------------|------------------------||
A|------------------------|---------------------------------------|------------------------||
E|------------------------|---------------------------------------|------------------------||
 |        \--3-/  \--3-/                                                    ||
E|------------------------|55555-55555-55555-5-----|------------------------||
B|------------------------|55555-55555-55555-5-----|------------------------||
G|4-2---------------------|55555-55555-55555-5---4-|4-2---------------------||
D|5-3---------------------|77777-77777-77777-7---5-|5-3---------------------||
A|------------------------|77777-77777-77777-7-----|------------------------||
E|------------------------|55555-55555-55555-5-----|------------------------||

E|(17)--15----------------|
B|------------------------|
G|------------------------|
D|------------------------|
A|------------------------|
E|------------------------|
 |
E|--------0---------3-5---|--------0---------3-5---|
B|------1---1-----1-4-----|------1---1-----1-4-----|
G|----0---------1---4-----|----0---------1---4-----|
D|--2---------1-----------|--2---------1-----------|
A|3-----------------------|3-----------------------|
E|------------------------|------------------------|

E|--------0---------3-5---|
B|------1---1-----1-4-----|
G|----0---------1---4-----|
D|--2---------1-----------| Play
A|3-----------------------| 18 times
E|------------------------|

E|------------------------|
B|3-----------------------|
G|2-----------------------|
D|2-----------------------|
A|3-----------------------|
E|------------------------|
  I'm gonna crawl





Comments


Popular Led Zeppelin tabs & chords
The Ocean Bass Tabs
Hey Hey What Can I Do 2 Chords
Custard Pie Drum Tabs
South Bound Saurez Drum Tabs
Living Loving Maid 2 Tabs
Ramble On 2 Tabs
Stairway To Heaven 8 Tabs
Stairway To Heaven Live At Madison Square Gardens Tabs
The Song Remains The Same Tabs
White Summer 1 Tabs


Song lyrics



↑ Back to top | Tablatures and chords are parodies/interpretations of the original songs. You may use it for private study, scholarship, research or language learning purposes only
© 2014 AZChords.com Contact us | Privacy policy | DMCA | Add/correct tabs | Request tabs | Top 50 tabs